ISO-10303-21;
HEADER;
FILE_DESCRIPTION (( 'STEP AP203' ),
    '1' );
FILE_NAME ('Web Model 47682_14802.step',
    '2020-10-07T17:23:06',
    ( '' ),
    ( '' ),
    'SwSTEP 2.0',
    'SolidWorks 2018',
    '' );
FILE_SCHEMA (( 'CONFIG_CONTROL_DESIGN' ));
ENDSEC;

DATA;
#1 = PERSON_AND_ORGANIZATION ( #125, #61 ) ;
#2 = PLANE ( 'NONE',  #107 ) ;
#3 = DIRECTION ( 'NONE',  ( 1.000000000000000000, 0.0000000000000000000, -0.0000000000000000000 ) ) ;
#4 = DIRECTION ( 'NONE',  ( 0.0000000000000000000, 0.0000000000000000000, 1.000000000000000000 ) ) ;
#5 = DIRECTION ( 'NONE',  ( -0.0000000000000000000, -0.0000000000000000000, -1.000000000000000000 ) ) ;
#6 = VERTEX_POINT ( 'NONE', #20 ) ;
#7 = DATE_AND_TIME ( #44, #164 ) ;
#8 = EDGE_LOOP ( 'NONE', ( #90, #53, #155, #142 ) ) ;
#9 = DATE_TIME_ROLE ( 'creation_date' ) ;
#10 = UNCERTAINTY_MEASURE_WITH_UNIT (LENGTH_MEASURE( 1.000000000000000082E-05 ), #113, 'distance_accuracy_value', 'NONE');
#11 = PERSON_AND_ORGANIZATION_ROLE ( 'design_supplier' ) ;
#12 = CARTESIAN_POINT ( 'NONE',  ( 0.0000000000000000000, 0.0000000000000000000, -1.000000000000000000 ) ) ;
#13 = CC_DESIGN_APPROVAL ( #171, ( #109 ) ) ;
#14 = PERSON_AND_ORGANIZATION ( #125, #61 ) ;
#15 = DESIGN_CONTEXT ( 'detailed design', #77, 'design' ) ;
#16 = LINE ( 'NONE', #33, #83 ) ;
#17 = AXIS2_PLACEMENT_3D ( 'NONE', #130, #111, #168 ) ;
#18 = COORDINATED_UNIVERSAL_TIME_OFFSET ( 5, 0, .BEHIND. ) ;
#19 = DIRECTION ( 'NONE',  ( 0.0000000000000000000, 0.0000000000000000000, 1.000000000000000000 ) ) ;
#20 = CARTESIAN_POINT ( 'NONE',  ( -6.250000000000000000, 0.0000000000000000000, -1.000000000000000000 ) ) ;
#21 = ORIENTED_EDGE ( 'NONE', *, *, #73, .T. ) ;
#22 = CIRCLE ( 'NONE', #129, 6.250000000000000000 ) ;
#23 = DIRECTION ( 'NONE',  ( 0.0000000000000000000, 0.0000000000000000000, 1.000000000000000000 ) ) ;
#24 = DIRECTION ( 'NONE',  ( 0.0000000000000000000, 0.0000000000000000000, 1.000000000000000000 ) ) ;
#25 = PERSON_AND_ORGANIZATION ( #125, #61 ) ;
#26 =( NAMED_UNIT ( * ) SI_UNIT ( $, .STERADIAN. ) SOLID_ANGLE_UNIT ( ) );
#27 = PERSON_AND_ORGANIZATION_ROLE ( 'creator' ) ;
#28 = CIRCLE ( 'NONE', #120, 6.250000000000000000 ) ;
#29 = CYLINDRICAL_SURFACE ( 'NONE', #153, 6.250000000000000000 ) ;
#30 = MECHANICAL_CONTEXT ( 'NONE', #89, 'mechanical' ) ;
#31 = CIRCLE ( 'NONE', #42, 6.250000000000000000 ) ;
#32 = APPROVAL_PERSON_ORGANIZATION ( #56, #48, #118 ) ;
#33 = CARTESIAN_POINT ( 'NONE',  ( -6.250000000000000000, 0.0000000000000000000, 1.000000000000000000 ) ) ;
#34 = DIRECTION ( 'NONE',  ( 1.000000000000000000, 0.0000000000000000000, 0.0000000000000000000 ) ) ;
#35 = AXIS2_PLACEMENT_3D ( 'NONE', #114, #4, #34 ) ;
#36 = APPROVAL_ROLE ( '' ) ;
#37 = APPROVAL_DATE_TIME ( #67, #132 ) ;
#38 = APPROVAL_ROLE ( '' ) ;
#39 = PRODUCT_DEFINITION_SHAPE ( 'NONE', 'NONE',  #69 ) ;
#40 = APPROVAL_STATUS ( 'not_yet_approved' ) ;
#41 = CARTESIAN_POINT ( 'NONE',  ( 0.0000000000000000000, 0.0000000000000000000, 0.0000000000000000000 ) ) ;
#42 = AXIS2_PLACEMENT_3D ( 'NONE', #72, #140, #154 ) ;
#43 = CALENDAR_DATE ( 2020, 7, 10 ) ;
#44 = CALENDAR_DATE ( 2020, 7, 10 ) ;
#45 =( NAMED_UNIT ( * ) PLANE_ANGLE_UNIT ( ) SI_UNIT ( $, .RADIAN. ) );
#46 = EDGE_CURVE ( 'NONE', #6, #159, #31, .T. ) ;
#47 = VERTEX_POINT ( 'NONE', #98 ) ;
#48 = APPROVAL ( #40, 'UNSPECIFIED' ) ;
#49 = ADVANCED_FACE ( 'NONE', ( #162 ), #2, .F. ) ;
#50 = LOCAL_TIME ( 13, 23, 6.000000000000000000, #127 ) ;
#51 = APPLICATION_PROTOCOL_DEFINITION ( 'international standard', 'config_control_design', 1994, #77 ) ;
#52 = VERTEX_POINT ( 'NONE', #84 ) ;
#53 = ORIENTED_EDGE ( 'NONE', *, *, #97, .F. ) ;
#54 = ORIENTED_EDGE ( 'NONE', *, *, #79, .F. ) ;
#55 = AXIS2_PLACEMENT_3D ( 'NONE', #41, #144, #172 ) ;
#56 = PERSON_AND_ORGANIZATION ( #125, #61 ) ;
#57 = LINE ( 'NONE', #74, #123 ) ;
#58 = EDGE_CURVE ( 'NONE', #52, #6, #16, .T. ) ;
#59 = DATE_AND_TIME ( #91, #106 ) ;
#60 = ORIENTED_EDGE ( 'NONE', *, *, #46, .F. ) ;
#61 = ORGANIZATION ( 'UNSPECIFIED', 'UNSPECIFIED', '' ) ;
#62 = CARTESIAN_POINT ( 'NONE',  ( 0.0000000000000000000, 0.0000000000000000000, 1.000000000000000000 ) ) ;
#63 = DIRECTION ( 'NONE',  ( -1.000000000000000000, 0.0000000000000000000, 0.0000000000000000000 ) ) ;
#64 = CC_DESIGN_PERSON_AND_ORGANIZATION_ASSIGNMENT ( #121, #88, ( #161 ) ) ;
#65 = ADVANCED_FACE ( 'NONE', ( #166 ), #170, .T. ) ;
#66 = PERSON_AND_ORGANIZATION_ROLE ( 'creator' ) ;
#67 = DATE_AND_TIME ( #43, #76 ) ;
#68 = PRODUCT_RELATED_PRODUCT_CATEGORY ( 'detail', '', ( #161 ) ) ;
#69 = PRODUCT_DEFINITION ( 'UNKNOWN', '', #104, #15 ) ;
#70 = COORDINATED_UNIVERSAL_TIME_OFFSET ( 5, 0, .BEHIND. ) ;
#71 = DIRECTION ( 'NONE',  ( -0.0000000000000000000, -0.0000000000000000000, -1.000000000000000000 ) ) ;
#72 = CARTESIAN_POINT ( 'NONE',  ( 0.0000000000000000000, 0.0000000000000000000, -1.000000000000000000 ) ) ;
#73 = EDGE_CURVE ( 'NONE', #47, #159, #57, .T. ) ;
#74 = CARTESIAN_POINT ( 'NONE',  ( 6.250000000000000000, 7.654042494670957606E-16, 1.000000000000000000 ) ) ;
#75 = CC_DESIGN_APPROVAL ( #132, ( #69 ) ) ;
#76 = LOCAL_TIME ( 13, 23, 6.000000000000000000, #102 ) ;
#77 = APPLICATION_CONTEXT ( 'configuration controlled 3d designs of mechanical parts and assemblies' ) ;
#78 = LOCAL_TIME ( 13, 23, 6.000000000000000000, #18 ) ;
#79 = EDGE_CURVE ( 'NONE', #159, #6, #28, .T. ) ;
#80 = EDGE_LOOP ( 'NONE', ( #60, #54 ) ) ;
#81 = APPROVAL_PERSON_ORGANIZATION ( #131, #132, #38 ) ;
#82 = ORIENTED_EDGE ( 'NONE', *, *, #105, .F. ) ;
#83 = VECTOR ( 'NONE', #71, 1000.000000000000000 ) ;
#84 = CARTESIAN_POINT ( 'NONE',  ( -6.250000000000000000, 0.0000000000000000000, 1.000000000000000000 ) ) ;
#85 = CC_DESIGN_PERSON_AND_ORGANIZATION_ASSIGNMENT ( #1, #27, ( #69 ) ) ;
#86 = DIRECTION ( 'NONE',  ( 0.0000000000000000000, 0.0000000000000000000, 1.000000000000000000 ) ) ;
#87 = PERSON_AND_ORGANIZATION ( #125, #61 ) ;
#88 = PERSON_AND_ORGANIZATION_ROLE ( 'design_owner' ) ;
#89 = APPLICATION_CONTEXT ( 'configuration controlled 3d designs of mechanical parts and assemblies' ) ;
#90 = ORIENTED_EDGE ( 'NONE', *, *, #73, .F. ) ;
#91 = CALENDAR_DATE ( 2020, 7, 10 ) ;
#92 = CC_DESIGN_DATE_AND_TIME_ASSIGNMENT ( #139, #9, ( #69 ) ) ;
#93 = ORIENTED_EDGE ( 'NONE', *, *, #58, .F. ) ;
#94 = CC_DESIGN_PERSON_AND_ORGANIZATION_ASSIGNMENT ( #25, #11, ( #104 ) ) ;
#95 = CYLINDRICAL_SURFACE ( 'NONE', #17, 6.250000000000000000 ) ;
#96 = CARTESIAN_POINT ( 'NONE',  ( 0.0000000000000000000, 0.0000000000000000000, -1.000000000000000000 ) ) ;
#97 = EDGE_CURVE ( 'NONE', #52, #47, #126, .T. ) ;
#98 = CARTESIAN_POINT ( 'NONE',  ( 6.250000000000000000, 7.654042494670957606E-16, 1.000000000000000000 ) ) ;
#99 = DIRECTION ( 'NONE',  ( -0.0000000000000000000, -0.0000000000000000000, -1.000000000000000000 ) ) ;
#100 = ADVANCED_FACE ( 'NONE', ( #124 ), #29, .T. ) ;
#101 = CC_DESIGN_DATE_AND_TIME_ASSIGNMENT ( #173, #133, ( #109 ) ) ;
#102 = COORDINATED_UNIVERSAL_TIME_OFFSET ( 5, 0, .BEHIND. ) ;
#103 = PERSON_AND_ORGANIZATION_ROLE ( 'classification_officer' ) ;
#104 = PRODUCT_DEFINITION_FORMATION_WITH_SPECIFIED_SOURCE ( 'ANY', '', #161, .NOT_KNOWN. ) ;
#105 = EDGE_CURVE ( 'NONE', #47, #52, #22, .T. ) ;
#106 = LOCAL_TIME ( 13, 23, 6.000000000000000000, #160 ) ;
#107 = AXIS2_PLACEMENT_3D ( 'NONE', #12, #24, #150 ) ;
#108 = ORIENTED_EDGE ( 'NONE', *, *, #105, .T. ) ;
#109 = SECURITY_CLASSIFICATION ( '', '', #134 ) ;
#110 = SHAPE_DEFINITION_REPRESENTATION ( #39, #137 ) ;
#111 = DIRECTION ( 'NONE',  ( -0.0000000000000000000, -0.0000000000000000000, -1.000000000000000000 ) ) ;
#112 = DIRECTION ( 'NONE',  ( 1.000000000000000000, 0.0000000000000000000, 0.0000000000000000000 ) ) ;
#113 =( LENGTH_UNIT ( ) NAMED_UNIT ( * ) SI_UNIT ( .MILLI., .METRE. ) );
#114 = CARTESIAN_POINT ( 'NONE',  ( 0.0000000000000000000, 0.0000000000000000000, 1.000000000000000000 ) ) ;
#115 = APPROVAL_DATE_TIME ( #59, #48 ) ;
#116 = APPROVAL_STATUS ( 'not_yet_approved' ) ;
#117 = APPLICATION_PROTOCOL_DEFINITION ( 'international standard', 'config_control_design', 1994, #89 ) ;
#118 = APPROVAL_ROLE ( '' ) ;
#119 = APPROVAL_STATUS ( 'not_yet_approved' ) ;
#120 = AXIS2_PLACEMENT_3D ( 'NONE', #96, #19, #128 ) ;
#121 = PERSON_AND_ORGANIZATION ( #125, #61 ) ;
#122 = MANIFOLD_SOLID_BREP ( 'Boss-Extrude1', #151 ) ;
#123 = VECTOR ( 'NONE', #5, 1000.000000000000000 ) ;
#124 = FACE_OUTER_BOUND ( 'NONE', #8, .T. ) ;
#125 = PERSON ( 'UNSPECIFIED', 'UNSPECIFIED', 'UNSPECIFIED', ('UNSPECIFIED'), ('UNSPECIFIED'), ('UNSPECIFIED') ) ;
#126 = CIRCLE ( 'NONE', #35, 6.250000000000000000 ) ;
#127 = COORDINATED_UNIVERSAL_TIME_OFFSET ( 5, 0, .BEHIND. ) ;
#128 = DIRECTION ( 'NONE',  ( 1.000000000000000000, 0.0000000000000000000, 0.0000000000000000000 ) ) ;
#129 = AXIS2_PLACEMENT_3D ( 'NONE', #167, #23, #112 ) ;
#130 = CARTESIAN_POINT ( 'NONE',  ( 0.0000000000000000000, 0.0000000000000000000, 1.000000000000000000 ) ) ;
#131 = PERSON_AND_ORGANIZATION ( #125, #61 ) ;
#132 = APPROVAL ( #119, 'UNSPECIFIED' ) ;
#133 = DATE_TIME_ROLE ( 'classification_date' ) ;
#134 = SECURITY_CLASSIFICATION_LEVEL ( 'unclassified' ) ;
#135 = EDGE_LOOP ( 'NONE', ( #82, #21, #149, #93 ) ) ;
#136 = CC_DESIGN_PERSON_AND_ORGANIZATION_ASSIGNMENT ( #175, #103, ( #109 ) ) ;
#137 = ADVANCED_BREP_SHAPE_REPRESENTATION ( 'Web Model 47682_14802', ( #122, #55 ), #174 ) ;
#138 = CC_DESIGN_PERSON_AND_ORGANIZATION_ASSIGNMENT ( #87, #66, ( #104 ) ) ;
#139 = DATE_AND_TIME ( #143, #50 ) ;
#140 = DIRECTION ( 'NONE',  ( 0.0000000000000000000, 0.0000000000000000000, 1.000000000000000000 ) ) ;
#141 = CARTESIAN_POINT ( 'NONE',  ( 0.0000000000000000000, 0.0000000000000000000, 1.000000000000000000 ) ) ;
#142 = ORIENTED_EDGE ( 'NONE', *, *, #46, .T. ) ;
#143 = CALENDAR_DATE ( 2020, 7, 10 ) ;
#144 = DIRECTION ( 'NONE',  ( 0.0000000000000000000, 0.0000000000000000000, 1.000000000000000000 ) ) ;
#145 = AXIS2_PLACEMENT_3D ( 'NONE', #62, #86, #3 ) ;
#146 = ORIENTED_EDGE ( 'NONE', *, *, #97, .T. ) ;
#147 = APPROVAL_DATE_TIME ( #7, #171 ) ;
#148 = APPROVAL_PERSON_ORGANIZATION ( #14, #171, #36 ) ;
#149 = ORIENTED_EDGE ( 'NONE', *, *, #79, .T. ) ;
#150 = DIRECTION ( 'NONE',  ( 1.000000000000000000, 0.0000000000000000000, -0.0000000000000000000 ) ) ;
#151 = CLOSED_SHELL ( 'NONE', ( #169, #100, #65, #49 ) ) ;
#152 = CARTESIAN_POINT ( 'NONE',  ( 6.250000000000000000, 7.654042494670957606E-16, -1.000000000000000000 ) ) ;
#153 = AXIS2_PLACEMENT_3D ( 'NONE', #141, #99, #63 ) ;
#154 = DIRECTION ( 'NONE',  ( 1.000000000000000000, 0.0000000000000000000, 0.0000000000000000000 ) ) ;
#155 = ORIENTED_EDGE ( 'NONE', *, *, #58, .T. ) ;
#156 = EDGE_LOOP ( 'NONE', ( #146, #108 ) ) ;
#157 = CALENDAR_DATE ( 2020, 7, 10 ) ;
#158 = CC_DESIGN_SECURITY_CLASSIFICATION ( #109, ( #104 ) ) ;
#159 = VERTEX_POINT ( 'NONE', #152 ) ;
#160 = COORDINATED_UNIVERSAL_TIME_OFFSET ( 5, 0, .BEHIND. ) ;
#161 = PRODUCT ( 'Web Model 47682_14802', 'Web Model 47682_14802', '', ( #30 ) ) ;
#162 = FACE_OUTER_BOUND ( 'NONE', #80, .T. ) ;
#163 = FACE_OUTER_BOUND ( 'NONE', #135, .T. ) ;
#164 = LOCAL_TIME ( 13, 23, 6.000000000000000000, #70 ) ;
#165 = CC_DESIGN_APPROVAL ( #48, ( #104 ) ) ;
#166 = FACE_OUTER_BOUND ( 'NONE', #156, .T. ) ;
#167 = CARTESIAN_POINT ( 'NONE',  ( 0.0000000000000000000, 0.0000000000000000000, 1.000000000000000000 ) ) ;
#168 = DIRECTION ( 'NONE',  ( -1.000000000000000000, 0.0000000000000000000, 0.0000000000000000000 ) ) ;
#169 = ADVANCED_FACE ( 'NONE', ( #163 ), #95, .T. ) ;
#170 = PLANE ( 'NONE',  #145 ) ;
#171 = APPROVAL ( #116, 'UNSPECIFIED' ) ;
#172 = DIRECTION ( 'NONE',  ( 1.000000000000000000, 0.0000000000000000000, 0.0000000000000000000 ) ) ;
#173 = DATE_AND_TIME ( #157, #78 ) ;
#174 =( GEOMETRIC_REPRESENTATION_CONTEXT ( 3 ) GLOBAL_UNCERTAINTY_ASSIGNED_CONTEXT ( ( #10 ) ) GLOBAL_UNIT_ASSIGNED_CONTEXT ( ( #113, #45, #26 ) ) REPRESENTATION_CONTEXT ( 'NONE', 'WORKASPACE' ) );
#175 = PERSON_AND_ORGANIZATION ( #125, #61 ) ;
ENDSEC;
END-ISO-10303-21;
