ISO-10303-21;
HEADER;
FILE_DESCRIPTION (( 'STEP AP203' ),
    '1' );
FILE_NAME ('25009-E0W.STEP',
    '2012-09-28T16:21:29',
    ( 'Admin' ),
    ( 'Thorlabs, Inc.' ),
    'SwSTEP 2.0',
    'SolidWorks 2011',
    '' );
FILE_SCHEMA (( 'CONFIG_CONTROL_DESIGN' ));
ENDSEC;

DATA;
#1 = DIRECTION ( 'NONE',  ( 0.0000000000000000000, 0.0000000000000000000, -1.000000000000000000 ) ) ;
#2 = DATE_AND_TIME ( #5, #214 ) ;
#3 = DATE_TIME_ROLE ( 'classification_date' ) ;
#4 = DIRECTION ( 'NONE',  ( -1.000000000000000000, 0.0000000000000000000, 0.0000000000000000000 ) ) ;
#5 = CALENDAR_DATE ( 2012, 28, 9 ) ;
#6 = CC_DESIGN_DATE_AND_TIME_ASSIGNMENT ( #2, #3, ( #219 ) ) ;
#7 = PERSON_AND_ORGANIZATION ( #181, #180 ) ;
#8 = APPROVAL_ROLE ( '' ) ;
#9 = APPROVAL_DATE_TIME ( #16, #13 ) ;
#10 = APPROVAL_PERSON_ORGANIZATION ( #7, #13, #8 ) ;
#11 = CC_DESIGN_APPROVAL ( #13, ( #219 ) ) ;
#12 = APPROVAL_STATUS ( 'not_yet_approved' ) ;
#13 = APPROVAL ( #12, 'UNSPECIFIED' ) ;
#14 = LOCAL_TIME ( 12, 21, 29.00000000000000000, #17 ) ;
#15 = CALENDAR_DATE ( 2012, 28, 9 ) ;
#16 = DATE_AND_TIME ( #15, #14 ) ;
#17 = COORDINATED_UNIVERSAL_TIME_OFFSET ( 5, 0, .BEHIND. ) ;
#18 = CARTESIAN_POINT ( 'NONE',  ( -15.59991495543672000, -0.05486866416718697700, -6.719473394583357200E-018 ) ) ;
#19 = DIRECTION ( 'NONE',  ( -0.7071067811865626700, -0.7071067811865324700, 0.0000000000000000000 ) ) ;
#20 = VECTOR ( 'NONE', #19, 999.9999999999998900 ) ;
#21 = CIRCLE ( 'NONE', #22, 6.349999999999999600 ) ;
#22 = AXIS2_PLACEMENT_3D ( 'NONE', #40, #130, #129 ) ;
#23 = CARTESIAN_POINT ( 'NONE',  ( 2.100000000000000100, 7.715274834628326400E-016, 0.0000000000000000000 ) ) ;
#24 = CARTESIAN_POINT ( 'NONE',  ( 0.8133979906573102200, 6.350000000000001400, 7.776507174585694100E-016 ) ) ;
#25 = VERTEX_POINT ( 'NONE', #23 ) ;
#26 = EDGE_LOOP ( 'NONE', ( #31, #94, #97 ) ) ;
#27 = ORIENTED_EDGE ( 'NONE', *, *, #61, .T. ) ;
#28 = EDGE_CURVE ( 'NONE', #93, #35, #89, .T. ) ;
#29 = ORIENTED_EDGE ( 'NONE', *, *, #30, .F. ) ;
#30 = EDGE_CURVE ( 'NONE', #35, #36, #21, .T. ) ;
#31 = ORIENTED_EDGE ( 'NONE', *, *, #34, .F. ) ;
#32 = EDGE_CURVE ( 'NONE', #25, #87, #90, .T. ) ;
#33 = ORIENTED_EDGE ( 'NONE', *, *, #96, .T. ) ;
#34 = EDGE_CURVE ( 'NONE', #25, #93, #38, .T. ) ;
#35 = VERTEX_POINT ( 'NONE', #71 ) ;
#36 = VERTEX_POINT ( 'NONE', #24 ) ;
#37 = ORIENTED_EDGE ( 'NONE', *, *, #34, .T. ) ;
#38 = CIRCLE ( 'NONE', #128, 17.69999999999999900 ) ;
#39 = ORIENTED_EDGE ( 'NONE', *, *, #103, .F. ) ;
#40 = CARTESIAN_POINT ( 'NONE',  ( 0.8133979906573113300, 5.351825285851211600E-016, 0.0000000000000000000 ) ) ;
#41 = PRODUCT_DEFINITION_SHAPE ( 'NONE', 'NONE',  #144 ) ;
#42 = EDGE_CURVE ( 'NONE', #84, #43, #65, .T. ) ;
#43 = VERTEX_POINT ( 'NONE', #152 ) ;
#44 = ORIENTED_EDGE ( 'NONE', *, *, #42, .F. ) ;
#45 = ORIENTED_EDGE ( 'NONE', *, *, #52, .F. ) ;
#46 = EDGE_CURVE ( 'NONE', #81, #43, #251, .T. ) ;
#47 = ORIENTED_EDGE ( 'NONE', *, *, #46, .T. ) ;
#48 = ORIENTED_EDGE ( 'NONE', *, *, #77, .T. ) ;
#49 = ADVANCED_FACE ( 'NONE', ( #250 ), #284, .T. ) ;
#50 = EDGE_CURVE ( 'NONE', #81, #74, #275, .T. ) ;
#51 = ORIENTED_EDGE ( 'NONE', *, *, #50, .F. ) ;
#52 = EDGE_CURVE ( 'NONE', #84, #60, #277, .T. ) ;
#53 = ADVANCED_FACE ( 'NONE', ( #279 ), #266, .T. ) ;
#54 = EDGE_LOOP ( 'NONE', ( #101, #37, #39 ) ) ;
#55 = ORIENTED_EDGE ( 'NONE', *, *, #52, .T. ) ;
#56 = EDGE_LOOP ( 'NONE', ( #45, #118, #119, #117 ) ) ;
#57 = ORIENTED_EDGE ( 'NONE', *, *, #63, .F. ) ;
#58 = EDGE_CURVE ( 'NONE', #60, #74, #280, .T. ) ;
#59 = ADVANCED_FACE ( 'NONE', ( #261 ), #265, .T. ) ;
#60 = VERTEX_POINT ( 'NONE', #257 ) ;
#61 = EDGE_CURVE ( 'NONE', #36, #74, #209, .T. ) ;
#62 = ORIENTED_EDGE ( 'NONE', *, *, #58, .F. ) ;
#63 = EDGE_CURVE ( 'NONE', #35, #60, #204, .T. ) ;
#64 = EDGE_LOOP ( 'NONE', ( #123, #120, #121 ) ) ;
#65 = CIRCLE ( 'NONE', #68, 17.69999999999999900 ) ;
#66 = SHAPE_DEFINITION_REPRESENTATION ( #41, #318 ) ;
#67 = CARTESIAN_POINT ( 'NONE',  ( 15.59991495543672000, 0.05486866416719694800, 0.0000000000000000000 ) ) ;
#68 = AXIS2_PLACEMENT_3D ( 'NONE', #67, #1, #4 ) ;
#69 = PRODUCT_RELATED_PRODUCT_CATEGORY ( 'detail', '', ( #182 ) ) ;
#70 = DIRECTION ( 'NONE',  ( -1.000000000000000000, 0.0000000000000000000, 0.0000000000000000000 ) ) ;
#71 = CARTESIAN_POINT ( 'NONE',  ( 0.8133979906573125500, -6.349999999999998800, 0.0000000000000000000 ) ) ;
#72 = CARTESIAN_POINT ( 'NONE',  ( -15.59991495543672000, 0.05486866416718201600, 0.0000000000000000000 ) ) ;
#73 = ORIENTED_EDGE ( 'NONE', *, *, #77, .F. ) ;
#74 = VERTEX_POINT ( 'NONE', #207 ) ;
#75 = ORIENTED_EDGE ( 'NONE', *, *, #58, .T. ) ;
#76 = EDGE_LOOP ( 'NONE', ( #73, #55, #75, #51 ) ) ;
#77 = EDGE_CURVE ( 'NONE', #84, #81, #200, .T. ) ;
#78 = ORIENTED_EDGE ( 'NONE', *, *, #30, .T. ) ;
#79 = EDGE_LOOP ( 'NONE', ( #48, #47, #44 ) ) ;
#80 = ORIENTED_EDGE ( 'NONE', *, *, #61, .F. ) ;
#81 = VERTEX_POINT ( 'NONE', #205 ) ;
#82 = ORIENTED_EDGE ( 'NONE', *, *, #28, .F. ) ;
#83 = ADVANCED_FACE ( 'NONE', ( #212 ), #259, .T. ) ;
#84 = VERTEX_POINT ( 'NONE', #187 ) ;
#85 = CLOSED_SHELL ( 'NONE', ( #92, #98, #83, #59, #53, #49, #122, #115, #110, #109 ) ) ;
#86 = MANIFOLD_SOLID_BREP ( '25009-001-1-solid1', #85 ) ;
#87 = VERTEX_POINT ( 'NONE', #189 ) ;
#88 = CARTESIAN_POINT ( 'NONE',  ( 0.9548193468946240000, -6.208578643762693100, 0.0000000000000000000 ) ) ;
#89 = LINE ( 'NONE', #88, #20 ) ;
#90 = CIRCLE ( 'NONE', #132, 17.69999999999999900 ) ;
#91 = ORIENTED_EDGE ( 'NONE', *, *, #99, .T. ) ;
#92 = ADVANCED_FACE ( 'NONE', ( #185 ), #206, .T. ) ;
#93 = VERTEX_POINT ( 'NONE', #190 ) ;
#94 = ORIENTED_EDGE ( 'NONE', *, *, #32, .T. ) ;
#95 = EDGE_LOOP ( 'NONE', ( #33, #91, #29, #82 ) ) ;
#96 = EDGE_CURVE ( 'NONE', #93, #87, #173, .T. ) ;
#97 = ORIENTED_EDGE ( 'NONE', *, *, #96, .F. ) ;
#98 = ADVANCED_FACE ( 'NONE', ( #186 ), #192, .T. ) ;
#99 = EDGE_CURVE ( 'NONE', #87, #36, #165, .T. ) ;
#100 = EDGE_LOOP ( 'NONE', ( #78, #27, #62, #57 ) ) ;
#101 = ORIENTED_EDGE ( 'NONE', *, *, #32, .F. ) ;
#102 = ORIENTED_EDGE ( 'NONE', *, *, #28, .T. ) ;
#103 = EDGE_CURVE ( 'NONE', #87, #93, #166, .T. ) ;
#104 = ORIENTED_EDGE ( 'NONE', *, *, #103, .T. ) ;
#105 = ORIENTED_EDGE ( 'NONE', *, *, #113, .F. ) ;
#106 = ORIENTED_EDGE ( 'NONE', *, *, #63, .T. ) ;
#107 = ORIENTED_EDGE ( 'NONE', *, *, #114, .F. ) ;
#108 = ORIENTED_EDGE ( 'NONE', *, *, #99, .F. ) ;
#109 = ADVANCED_FACE ( 'NONE', ( #171 ), #174, .T. ) ;
#110 = ADVANCED_FACE ( 'NONE', ( #164 ), #314, .T. ) ;
#111 = EDGE_LOOP ( 'NONE', ( #108, #104, #102, #105 ) ) ;
#112 = ORIENTED_EDGE ( 'NONE', *, *, #113, .T. ) ;
#113 = EDGE_CURVE ( 'NONE', #36, #35, #156, .T. ) ;
#114 = EDGE_CURVE ( 'NONE', #74, #60, #296, .T. ) ;
#115 = ADVANCED_FACE ( 'NONE', ( #291 ), #308, .T. ) ;
#116 = EDGE_LOOP ( 'NONE', ( #80, #112, #106, #107 ) ) ;
#117 = ORIENTED_EDGE ( 'NONE', *, *, #114, .T. ) ;
#118 = ORIENTED_EDGE ( 'NONE', *, *, #124, .F. ) ;
#119 = ORIENTED_EDGE ( 'NONE', *, *, #50, .T. ) ;
#120 = ORIENTED_EDGE ( 'NONE', *, *, #124, .T. ) ;
#121 = ORIENTED_EDGE ( 'NONE', *, *, #42, .T. ) ;
#122 = ADVANCED_FACE ( 'NONE', ( #153 ), #285, .T. ) ;
#123 = ORIENTED_EDGE ( 'NONE', *, *, #46, .F. ) ;
#124 = EDGE_CURVE ( 'NONE', #81, #84, #313, .T. ) ;
#125 = DIRECTION ( 'NONE',  ( 0.0000000000000000000, -1.000000000000000000, -1.224646799147353500E-016 ) ) ;
#126 = DIRECTION ( 'NONE',  ( 2.249639673992786700E-032, -1.224646799147353200E-016, 1.000000000000000000 ) ) ;
#127 = DIRECTION ( 'NONE',  ( 0.0000000000000000000, 0.0000000000000000000, -1.000000000000000000 ) ) ;
#128 = AXIS2_PLACEMENT_3D ( 'NONE', #72, #127, #70 ) ;
#129 = DIRECTION ( 'NONE',  ( 1.878145495644181100E-016, -1.000000000000000000, 0.0000000000000000000 ) ) ;
#130 = DIRECTION ( 'NONE',  ( -1.000000000000000000, -1.836970198721029900E-016, -0.0000000000000000000 ) ) ;
#131 = CC_DESIGN_SECURITY_CLASSIFICATION ( #219, ( #238 ) ) ;
#132 = AXIS2_PLACEMENT_3D ( 'NONE', #18, #126, #125 ) ;
#133 = CC_DESIGN_APPROVAL ( #141, ( #144 ) ) ;
#134 = APPROVAL_DATE_TIME ( #135, #141 ) ;
#135 = DATE_AND_TIME ( #136, #137 ) ;
#136 = CALENDAR_DATE ( 2012, 28, 9 ) ;
#137 = LOCAL_TIME ( 12, 21, 29.00000000000000000, #138 ) ;
#138 = COORDINATED_UNIVERSAL_TIME_OFFSET ( 5, 0, .BEHIND. ) ;
#139 = APPROVAL_PERSON_ORGANIZATION ( #143, #141, #140 ) ;
#140 = APPROVAL_ROLE ( '' ) ;
#141 = APPROVAL ( #142, 'UNSPECIFIED' ) ;
#142 = APPROVAL_STATUS ( 'not_yet_approved' ) ;
#143 = PERSON_AND_ORGANIZATION ( #181, #180 ) ;
#144 = PRODUCT_DEFINITION ( 'UNKNOWN', '', #238, #145 ) ;
#145 = DESIGN_CONTEXT ( 'detailed design', #147, 'design' ) ;
#146 = APPLICATION_PROTOCOL_DEFINITION ( 'international standard', 'config_control_design', 1994, #147 ) ;
#147 = APPLICATION_CONTEXT ( 'configuration controlled 3d designs of mechanical parts and assemblies' ) ;
#148 = APPLICATION_CONTEXT ( 'configuration controlled 3d designs of mechanical parts and assemblies' ) ;
#149 = DIRECTION ( 'NONE',  ( -1.000000000000000000, -1.836970198721029900E-016, -0.0000000000000000000 ) ) ;
#150 = CARTESIAN_POINT ( 'NONE',  ( 15.59991495543672000, -0.05486866416719044700, -6.719473394584484300E-018 ) ) ;
#151 = CARTESIAN_POINT ( 'NONE',  ( 15.59991495543672000, 3.252606517456513300E-015, 0.0000000000000000000 ) ) ;
#152 = CARTESIAN_POINT ( 'NONE',  ( -2.100000000000000100, 0.0000000000000000000, 0.0000000000000000000 ) ) ;
#153 = FACE_OUTER_BOUND ( 'NONE', #56, .T. ) ;
#154 = DIRECTION ( 'NONE',  ( 1.920926605209705400E-016, -1.000000000000000000, 0.0000000000000000000 ) ) ;
#155 = DIRECTION ( 'NONE',  ( -1.000000000000000000, -1.836970198721029900E-016, -0.0000000000000000000 ) ) ;
#156 = CIRCLE ( 'NONE', #299, 6.349999999999999600 ) ;
#157 = DIRECTION ( 'NONE',  ( -0.7071067811865627800, 0.7071067811865322500, 8.659560562354746700E-017 ) ) ;
#158 = VECTOR ( 'NONE', #157, 1000.000000000000000 ) ;
#159 = AXIS2_PLACEMENT_3D ( 'NONE', #175, #155, #154 ) ;
#160 = DIRECTION ( 'NONE',  ( 1.920926605209705400E-016, -1.000000000000000000, 0.0000000000000000000 ) ) ;
#161 = DIRECTION ( 'NONE',  ( -1.000000000000000000, -1.836970198721029900E-016, -0.0000000000000000000 ) ) ;
#162 = CARTESIAN_POINT ( 'NONE',  ( 0.9548193468946227800, 5.611612102721862100E-016, 0.0000000000000000000 ) ) ;
#163 = AXIS2_PLACEMENT_3D ( 'NONE', #162, #161, #160 ) ;
#164 = FACE_OUTER_BOUND ( 'NONE', #111, .T. ) ;
#165 = LINE ( 'NONE', #170, #158 ) ;
#166 = CIRCLE ( 'NONE', #159, 6.208578643762694000 ) ;
#167 = DIRECTION ( 'NONE',  ( 1.920926605209705400E-016, -1.000000000000000000, 0.0000000000000000000 ) ) ;
#168 = DIRECTION ( 'NONE',  ( -1.000000000000000000, -1.836970198721029900E-016, -0.0000000000000000000 ) ) ;
#169 = AXIS2_PLACEMENT_3D ( 'NONE', #312, #311, #310 ) ;
#170 = CARTESIAN_POINT ( 'NONE',  ( 0.9548193468946216700, 6.208578643762694900, 7.603315963338599400E-016 ) ) ;
#171 = FACE_OUTER_BOUND ( 'NONE', #54, .T. ) ;
#172 = DIRECTION ( 'NONE',  ( 1.836970198721029900E-016, -1.000000000000000000, 0.0000000000000000000 ) ) ;
#173 = CIRCLE ( 'NONE', #176, 6.208578643762694000 ) ;
#174 = TOROIDAL_SURFACE ( 'NONE', #169, -0.05486866416718450000, 17.69999999999999900 ) ;
#175 = CARTESIAN_POINT ( 'NONE',  ( 0.9548193468946227800, 5.611612102721862100E-016, 0.0000000000000000000 ) ) ;
#176 = AXIS2_PLACEMENT_3D ( 'NONE', #195, #168, #167 ) ;
#177 = CC_DESIGN_PERSON_AND_ORGANIZATION_ASSIGNMENT ( #179, #178, ( #182 ) ) ;
#178 = PERSON_AND_ORGANIZATION_ROLE ( 'design_owner' ) ;
#179 = PERSON_AND_ORGANIZATION ( #181, #180 ) ;
#180 = ORGANIZATION ( 'UNSPECIFIED', 'UNSPECIFIED', '' ) ;
#181 = PERSON ( 'UNSPECIFIED', 'UNSPECIFIED', 'UNSPECIFIED', ('UNSPECIFIED'), ('UNSPECIFIED'), ('UNSPECIFIED') ) ;
#182 = PRODUCT ( '25009-E0W', '25009-E0W', '', ( #183 ) ) ;
#183 = MECHANICAL_CONTEXT ( 'NONE', #148, 'mechanical' ) ;
#184 = APPLICATION_PROTOCOL_DEFINITION ( 'international standard', 'config_control_design', 1994, #148 ) ;
#185 = FACE_OUTER_BOUND ( 'NONE', #26, .T. ) ;
#186 = FACE_OUTER_BOUND ( 'NONE', #95, .T. ) ;
#187 = CARTESIAN_POINT ( 'NONE',  ( -0.9548193468946175600, -6.208578643762692200, 0.0000000000000000000 ) ) ;
#188 = AXIS2_PLACEMENT_3D ( 'NONE', #191, #201, #172 ) ;
#189 = CARTESIAN_POINT ( 'NONE',  ( 0.9548193468946216700, 6.208578643762694900, 7.689911568962146300E-016 ) ) ;
#190 = CARTESIAN_POINT ( 'NONE',  ( 0.9548193468946240000, -6.208578643762693100, 0.0000000000000000000 ) ) ;
#191 = CARTESIAN_POINT ( 'NONE',  ( -15.59991495543672000, -2.480112469560591400E-015, 0.0000000000000000000 ) ) ;
#192 = CONICAL_SURFACE ( 'NONE', #163, 6.208578643762694000, 0.7853981633974268500 ) ;
#193 = DIRECTION ( 'NONE',  ( 2.048885995248197400E-016, -1.000000000000000000, 0.0000000000000000000 ) ) ;
#194 = DIRECTION ( 'NONE',  ( -1.000000000000000000, -1.836970198721029900E-016, -0.0000000000000000000 ) ) ;
#195 = CARTESIAN_POINT ( 'NONE',  ( 0.9548193468946227800, 5.611612102721862100E-016, 0.0000000000000000000 ) ) ;
#196 = DIRECTION ( 'NONE',  ( 1.920926605209706200E-016, -1.000000000000000000, 0.0000000000000000000 ) ) ;
#197 = DIRECTION ( 'NONE',  ( -1.000000000000000000, -1.836970198721029900E-016, -0.0000000000000000000 ) ) ;
#198 = CARTESIAN_POINT ( 'NONE',  ( -0.9548193468946182300, 2.103662731906472400E-016, 0.0000000000000000000 ) ) ;
#199 = AXIS2_PLACEMENT_3D ( 'NONE', #213, #194, #193 ) ;
#200 = CIRCLE ( 'NONE', #210, 6.208578643762691300 ) ;
#201 = DIRECTION ( 'NONE',  ( -1.000000000000000000, -1.836970198721029900E-016, -0.0000000000000000000 ) ) ;
#202 = DIRECTION ( 'NONE',  ( -1.000000000000000000, -1.836970198721029900E-016, -0.0000000000000000000 ) ) ;
#203 = VECTOR ( 'NONE', #202, 1000.000000000000000 ) ;
#204 = LINE ( 'NONE', #258, #203 ) ;
#205 = CARTESIAN_POINT ( 'NONE',  ( -0.9548193468946186700, 6.208578643762692200, 7.603315963338596400E-016 ) ) ;
#206 = TOROIDAL_SURFACE ( 'NONE', #188, -0.05486866416718450000, 17.69999999999999900 ) ;
#207 = CARTESIAN_POINT ( 'NONE',  ( -0.8133979906573102200, 6.350000000000000500, 0.0000000000000000000 ) ) ;
#208 = VECTOR ( 'NONE', #270, 1000.000000000000000 ) ;
#209 = LINE ( 'NONE', #211, #208 ) ;
#210 = AXIS2_PLACEMENT_3D ( 'NONE', #198, #197, #196 ) ;
#211 = CARTESIAN_POINT ( 'NONE',  ( -2.100000000000001400, 6.349999999999999600, 7.776507174585692200E-016 ) ) ;
#212 = FACE_OUTER_BOUND ( 'NONE', #100, .T. ) ;
#213 = CARTESIAN_POINT ( 'NONE',  ( -2.100000000000000100, 0.0000000000000000000, 0.0000000000000000000 ) ) ;
#214 = LOCAL_TIME ( 12, 21, 29.00000000000000000, #215 ) ;
#215 = COORDINATED_UNIVERSAL_TIME_OFFSET ( 5, 0, .BEHIND. ) ;
#216 = CC_DESIGN_PERSON_AND_ORGANIZATION_ASSIGNMENT ( #218, #217, ( #219 ) ) ;
#217 = PERSON_AND_ORGANIZATION_ROLE ( 'classification_officer' ) ;
#218 = PERSON_AND_ORGANIZATION ( #181, #180 ) ;
#219 = SECURITY_CLASSIFICATION ( '', '', #220 ) ;
#220 = SECURITY_CLASSIFICATION_LEVEL ( 'unclassified' ) ;
#221 = CC_DESIGN_PERSON_AND_ORGANIZATION_ASSIGNMENT ( #223, #222, ( #238 ) ) ;
#222 = PERSON_AND_ORGANIZATION_ROLE ( 'design_supplier' ) ;
#223 = PERSON_AND_ORGANIZATION ( #181, #180 ) ;
#224 = CC_DESIGN_PERSON_AND_ORGANIZATION_ASSIGNMENT ( #226, #225, ( #238 ) ) ;
#225 = PERSON_AND_ORGANIZATION_ROLE ( 'creator' ) ;
#226 = PERSON_AND_ORGANIZATION ( #181, #180 ) ;
#227 = CC_DESIGN_APPROVAL ( #235, ( #238 ) ) ;
#228 = APPROVAL_DATE_TIME ( #229, #235 ) ;
#229 = DATE_AND_TIME ( #230, #231 ) ;
#230 = CALENDAR_DATE ( 2012, 28, 9 ) ;
#231 = LOCAL_TIME ( 12, 21, 29.00000000000000000, #232 ) ;
#232 = COORDINATED_UNIVERSAL_TIME_OFFSET ( 5, 0, .BEHIND. ) ;
#233 = APPROVAL_PERSON_ORGANIZATION ( #237, #235, #234 ) ;
#234 = APPROVAL_ROLE ( '' ) ;
#235 = APPROVAL ( #236, 'UNSPECIFIED' ) ;
#236 = APPROVAL_STATUS ( 'not_yet_approved' ) ;
#237 = PERSON_AND_ORGANIZATION ( #181, #180 ) ;
#238 = PRODUCT_DEFINITION_FORMATION_WITH_SPECIFIED_SOURCE ( 'ANY', '', #182, .NOT_KNOWN. ) ;
#239 = CC_DESIGN_DATE_AND_TIME_ASSIGNMENT ( #241, #240, ( #144 ) ) ;
#240 = DATE_TIME_ROLE ( 'creation_date' ) ;
#241 = DATE_AND_TIME ( #242, #243 ) ;
#242 = CALENDAR_DATE ( 2012, 28, 9 ) ;
#243 = LOCAL_TIME ( 12, 21, 29.00000000000000000, #244 ) ;
#244 = COORDINATED_UNIVERSAL_TIME_OFFSET ( 5, 0, .BEHIND. ) ;
#245 = CC_DESIGN_PERSON_AND_ORGANIZATION_ASSIGNMENT ( #247, #246, ( #144 ) ) ;
#246 = PERSON_AND_ORGANIZATION_ROLE ( 'creator' ) ;
#247 = PERSON_AND_ORGANIZATION ( #181, #180 ) ;
#248 = CARTESIAN_POINT ( 'NONE',  ( -0.8133979906573102200, 6.350000000000000500, 0.0000000000000000000 ) ) ;
#249 = AXIS2_PLACEMENT_3D ( 'NONE', #252, #269, #268 ) ;
#250 = FACE_OUTER_BOUND ( 'NONE', #64, .T. ) ;
#251 = CIRCLE ( 'NONE', #283, 17.69999999999999900 ) ;
#252 = CARTESIAN_POINT ( 'NONE',  ( 15.59991495543672000, 3.252606517456513300E-015, 0.0000000000000000000 ) ) ;
#253 = DIRECTION ( 'NONE',  ( 1.878145495644180800E-016, -1.000000000000000000, 0.0000000000000000000 ) ) ;
#254 = DIRECTION ( 'NONE',  ( -1.000000000000000000, -1.836970198721029900E-016, -0.0000000000000000000 ) ) ;
#255 = CARTESIAN_POINT ( 'NONE',  ( -0.8133979906573090000, 2.363449548777120200E-016, 0.0000000000000000000 ) ) ;
#256 = CARTESIAN_POINT ( 'NONE',  ( -0.8133979906573090000, 2.363449548777120200E-016, 0.0000000000000000000 ) ) ;
#257 = CARTESIAN_POINT ( 'NONE',  ( -0.8133979906573077800, -6.350000000000000500, 7.776507174585693100E-016 ) ) ;
#258 = CARTESIAN_POINT ( 'NONE',  ( -2.099999999999999200, -6.349999999999999600, 0.0000000000000000000 ) ) ;
#259 = CYLINDRICAL_SURFACE ( 'NONE', #199, 6.349999999999999600 ) ;
#260 = AXIS2_PLACEMENT_3D ( 'NONE', #255, #254, #253 ) ;
#261 = FACE_OUTER_BOUND ( 'NONE', #76, .T. ) ;
#262 = AXIS2_PLACEMENT_3D ( 'NONE', #256, #264, #263 ) ;
#263 = DIRECTION ( 'NONE',  ( -1.878145495644180800E-016, 1.000000000000000000, 0.0000000000000000000 ) ) ;
#264 = DIRECTION ( 'NONE',  ( 1.000000000000000000, 1.836970198721029900E-016, 0.0000000000000000000 ) ) ;
#265 = CONICAL_SURFACE ( 'NONE', #262, 6.350000000000000500, 0.7853981633974498300 ) ;
#266 = TOROIDAL_SURFACE ( 'NONE', #249, -0.05486866416719370100, 17.69999999999999900 ) ;
#267 = VECTOR ( 'NONE', #271, 1000.000000000000000 ) ;
#268 = DIRECTION ( 'NONE',  ( 1.836970198721029900E-016, -1.000000000000000000, 0.0000000000000000000 ) ) ;
#269 = DIRECTION ( 'NONE',  ( -1.000000000000000000, -1.836970198721029900E-016, -0.0000000000000000000 ) ) ;
#270 = DIRECTION ( 'NONE',  ( -1.000000000000000000, -1.836970198721029900E-016, -0.0000000000000000000 ) ) ;
#271 = DIRECTION ( 'NONE',  ( 0.7071067811865465700, -0.7071067811865484600, 8.659560562354946400E-017 ) ) ;
#272 = CARTESIAN_POINT ( 'NONE',  ( -0.8133979906573077800, -6.350000000000000500, 7.776507174585693100E-016 ) ) ;
#273 = DIRECTION ( 'NONE',  ( 0.7071067811865463500, 0.7071067811865487900, 0.0000000000000000000 ) ) ;
#274 = VECTOR ( 'NONE', #273, 999.9999999999998900 ) ;
#275 = LINE ( 'NONE', #248, #274 ) ;
#276 = DIRECTION ( 'NONE',  ( 1.836970198721029900E-016, -1.000000000000000000, 0.0000000000000000000 ) ) ;
#277 = LINE ( 'NONE', #272, #267 ) ;
#278 = AXIS2_PLACEMENT_3D ( 'NONE', #151, #149, #276 ) ;
#279 = FACE_OUTER_BOUND ( 'NONE', #79, .T. ) ;
#280 = CIRCLE ( 'NONE', #260, 6.350000000000000500 ) ;
#281 = DIRECTION ( 'NONE',  ( 0.0000000000000000000, -1.000000000000000000, -1.224646799147353500E-016 ) ) ;
#282 = DIRECTION ( 'NONE',  ( 2.249639673992786700E-032, -1.224646799147353200E-016, 1.000000000000000000 ) ) ;
#283 = AXIS2_PLACEMENT_3D ( 'NONE', #150, #282, #281 ) ;
#284 = TOROIDAL_SURFACE ( 'NONE', #278, -0.05486866416719370100, 17.69999999999999900 ) ;
#285 = CONICAL_SURFACE ( 'NONE', #288, 6.350000000000000500, 0.7853981633974498300 ) ;
#286 = AXIS2_PLACEMENT_3D ( 'NONE', #290, #326, #325 ) ;
#287 = DIRECTION ( 'NONE',  ( 2.048885995248197400E-016, -1.000000000000000000, 0.0000000000000000000 ) ) ;
#288 = AXIS2_PLACEMENT_3D ( 'NONE', #306, #305, #327 ) ;
#289 = AXIS2_PLACEMENT_3D ( 'NONE', #307, #300, #287 ) ;
#290 = CARTESIAN_POINT ( 'NONE',  ( -0.9548193468946182300, 2.103662731906472400E-016, 0.0000000000000000000 ) ) ;
#291 = FACE_OUTER_BOUND ( 'NONE', #116, .T. ) ;
#292 = DIRECTION ( 'NONE',  ( 1.878145495644180800E-016, -1.000000000000000000, 0.0000000000000000000 ) ) ;
#293 = DIRECTION ( 'NONE',  ( -1.000000000000000000, -1.836970198721029900E-016, -0.0000000000000000000 ) ) ;
#294 = CARTESIAN_POINT ( 'NONE',  ( -0.8133979906573090000, 2.363449548777120200E-016, 0.0000000000000000000 ) ) ;
#295 = AXIS2_PLACEMENT_3D ( 'NONE', #294, #293, #292 ) ;
#296 = CIRCLE ( 'NONE', #295, 6.350000000000000500 ) ;
#297 = DIRECTION ( 'NONE',  ( 1.878145495644181100E-016, -1.000000000000000000, 0.0000000000000000000 ) ) ;
#298 = DIRECTION ( 'NONE',  ( -1.000000000000000000, -1.836970198721029900E-016, -0.0000000000000000000 ) ) ;
#299 = AXIS2_PLACEMENT_3D ( 'NONE', #304, #298, #297 ) ;
#300 = DIRECTION ( 'NONE',  ( -1.000000000000000000, -1.836970198721029900E-016, -0.0000000000000000000 ) ) ;
#301 = DIRECTION ( 'NONE',  ( 1.920926605209705400E-016, -1.000000000000000000, 0.0000000000000000000 ) ) ;
#302 = DIRECTION ( 'NONE',  ( -1.000000000000000000, -1.836970198721029900E-016, -0.0000000000000000000 ) ) ;
#303 = CARTESIAN_POINT ( 'NONE',  ( 0.9548193468946227800, 5.611612102721862100E-016, 0.0000000000000000000 ) ) ;
#304 = CARTESIAN_POINT ( 'NONE',  ( 0.8133979906573113300, 5.351825285851211600E-016, 0.0000000000000000000 ) ) ;
#305 = DIRECTION ( 'NONE',  ( 1.000000000000000000, 1.836970198721029900E-016, 0.0000000000000000000 ) ) ;
#306 = CARTESIAN_POINT ( 'NONE',  ( -0.8133979906573090000, 2.363449548777120200E-016, 0.0000000000000000000 ) ) ;
#307 = CARTESIAN_POINT ( 'NONE',  ( -2.100000000000000100, 0.0000000000000000000, 0.0000000000000000000 ) ) ;
#308 = CYLINDRICAL_SURFACE ( 'NONE', #289, 6.349999999999999600 ) ;
#309 = AXIS2_PLACEMENT_3D ( 'NONE', #303, #302, #301 ) ;
#310 = DIRECTION ( 'NONE',  ( 1.836970198721029900E-016, -1.000000000000000000, 0.0000000000000000000 ) ) ;
#311 = DIRECTION ( 'NONE',  ( -1.000000000000000000, -1.836970198721029900E-016, -0.0000000000000000000 ) ) ;
#312 = CARTESIAN_POINT ( 'NONE',  ( -15.59991495543672000, -2.480112469560591400E-015, 0.0000000000000000000 ) ) ;
#313 = CIRCLE ( 'NONE', #286, 6.208578643762691300 ) ;
#314 = CONICAL_SURFACE ( 'NONE', #309, 6.208578643762694000, 0.7853981633974268500 ) ;
#315 = DIRECTION ( 'NONE',  ( 1.000000000000000000, 0.0000000000000000000, 0.0000000000000000000 ) ) ;
#316 = DIRECTION ( 'NONE',  ( 0.0000000000000000000, 0.0000000000000000000, 1.000000000000000000 ) ) ;
#317 = AXIS2_PLACEMENT_3D ( 'NONE', #324, #316, #315 ) ;
#318 = ADVANCED_BREP_SHAPE_REPRESENTATION ( '25009-E0W', ( #86, #317 ), #319 ) ;
#319 =( GEOMETRIC_REPRESENTATION_CONTEXT ( 3 ) GLOBAL_UNCERTAINTY_ASSIGNED_CONTEXT ( ( #320 ) ) GLOBAL_UNIT_ASSIGNED_CONTEXT ( ( #323, #322, #321 ) ) REPRESENTATION_CONTEXT ( 'NONE', 'WORKASPACE' ) );
#320 = UNCERTAINTY_MEASURE_WITH_UNIT (LENGTH_MEASURE( 1.000000000000000100E-005 ), #323, 'distance_accuracy_value', 'NONE');
#321 =( NAMED_UNIT ( * ) SI_UNIT ( $, .STERADIAN. ) SOLID_ANGLE_UNIT ( ) );
#322 =( NAMED_UNIT ( * ) PLANE_ANGLE_UNIT ( ) SI_UNIT ( $, .RADIAN. ) );
#323 =( LENGTH_UNIT ( ) NAMED_UNIT ( * ) SI_UNIT ( .MILLI., .METRE. ) );
#324 = CARTESIAN_POINT ( 'NONE',  ( 0.0000000000000000000, 0.0000000000000000000, 0.0000000000000000000 ) ) ;
#325 = DIRECTION ( 'NONE',  ( 1.920926605209706200E-016, -1.000000000000000000, 0.0000000000000000000 ) ) ;
#326 = DIRECTION ( 'NONE',  ( -1.000000000000000000, -1.836970198721029900E-016, -0.0000000000000000000 ) ) ;
#327 = DIRECTION ( 'NONE',  ( -1.878145495644180800E-016, 1.000000000000000000, 0.0000000000000000000 ) ) ;
ENDSEC;
END-ISO-10303-21;
