ISO-10303-21;
HEADER;
FILE_DESCRIPTION (( 'STEP AP203' ),
    '1' );
FILE_NAME ('Web Model 19634_19635.step',
    '2022-01-11T21:49:23',
    ( '' ),
    ( '' ),
    'SwSTEP 2.0',
    'SolidWorks 2018',
    '' );
FILE_SCHEMA (( 'CONFIG_CONTROL_DESIGN' ));
ENDSEC;

DATA;
#1 = EDGE_LOOP ( 'NONE', ( #129, #54, #82, #107 ) ) ;
#2 =( LENGTH_UNIT ( ) NAMED_UNIT ( * ) SI_UNIT ( .MILLI., .METRE. ) );
#3 = PERSON_AND_ORGANIZATION ( #120, #144 ) ;
#4 = DIRECTION ( 'NONE',  ( 0.000000000000000000, 0.000000000000000000, 1.000000000000000000 ) ) ;
#5 = EDGE_CURVE ( 'NONE', #175, #65, #73, .T. ) ;
#6 = FACE_OUTER_BOUND ( 'NONE', #60, .T. ) ;
#7 = CALENDAR_DATE ( 2022, 11, 1 ) ;
#8 = SECURITY_CLASSIFICATION_LEVEL ( 'unclassified' ) ;
#9 = PRODUCT_DEFINITION_SHAPE ( 'NONE', 'NONE',  #100 ) ;
#10 = CARTESIAN_POINT ( 'NONE',  ( 0.000000000000000000, 0.000000000000000000, 1.520000000000000018 ) ) ;
#11 = PERSON_AND_ORGANIZATION_ROLE ( 'design_supplier' ) ;
#12 = VECTOR ( 'NONE', #137, 1000.000000000000000 ) ;
#13 = ADVANCED_FACE ( 'NONE', ( #14 ), #124, .F. ) ;
#14 = FACE_OUTER_BOUND ( 'NONE', #143, .T. ) ;
#15 = CIRCLE ( 'NONE', #127, 25.39999999999999858 ) ;
#16 = COORDINATED_UNIVERSAL_TIME_OFFSET ( 5, 0, .BEHIND. ) ;
#17 = AXIS2_PLACEMENT_3D ( 'NONE', #108, #149, #21 ) ;
#18 = COORDINATED_UNIVERSAL_TIME_OFFSET ( 5, 0, .BEHIND. ) ;
#19 = CARTESIAN_POINT ( 'NONE',  ( -25.39999999999999858, 0.000000000000000000, 1.520000000000000018 ) ) ;
#20 = SECURITY_CLASSIFICATION ( '', '', #8 ) ;
#21 = DIRECTION ( 'NONE',  ( 1.000000000000000000, 0.000000000000000000, -0.000000000000000000 ) ) ;
#22 = LOCAL_TIME ( 16, 49, 23.00000000000000000, #165 ) ;
#23 = MANIFOLD_SOLID_BREP ( 'Boss-Extrude1', #35 ) ;
#24 = DIRECTION ( 'NONE',  ( 1.000000000000000000, 0.000000000000000000, 0.000000000000000000 ) ) ;
#25 = ADVANCED_FACE ( 'NONE', ( #57 ), #115, .T. ) ;
#26 = DATE_TIME_ROLE ( 'classification_date' ) ;
#27 = VERTEX_POINT ( 'NONE', #110 ) ;
#28 = PERSON_AND_ORGANIZATION ( #120, #144 ) ;
#29 = PERSON_AND_ORGANIZATION ( #120, #144 ) ;
#30 = EDGE_LOOP ( 'NONE', ( #45, #93, #79, #89 ) ) ;
#31 = LOCAL_TIME ( 16, 49, 23.00000000000000000, #16 ) ;
#32 = APPROVAL_DATE_TIME ( #67, #147 ) ;
#33 = CC_DESIGN_APPROVAL ( #119, ( #20 ) ) ;
#34 = PERSON_AND_ORGANIZATION ( #120, #144 ) ;
#35 = CLOSED_SHELL ( 'NONE', ( #105, #25, #111, #13 ) ) ;
#36 = EDGE_CURVE ( 'NONE', #175, #71, #151, .T. ) ;
#37 = CARTESIAN_POINT ( 'NONE',  ( 25.39999999999999858, 3.110602869834276865E-15, 0.000000000000000000 ) ) ;
#38 = FACE_OUTER_BOUND ( 'NONE', #30, .T. ) ;
#39 = APPROVAL_DATE_TIME ( #78, #119 ) ;
#40 = DIRECTION ( 'NONE',  ( 0.000000000000000000, 0.000000000000000000, 1.000000000000000000 ) ) ;
#41 = MECHANICAL_CONTEXT ( 'NONE', #125, 'mechanical' ) ;
#42 = CC_DESIGN_PERSON_AND_ORGANIZATION_ASSIGNMENT ( #141, #140, ( #20 ) ) ;
#43 = LINE ( 'NONE', #19, #116 ) ;
#44 = AXIS2_PLACEMENT_3D ( 'NONE', #10, #173, #103 ) ;
#45 = ORIENTED_EDGE ( 'NONE', *, *, #5, .F. ) ;
#46 = EDGE_CURVE ( 'NONE', #71, #27, #155, .T. ) ;
#47 = LOCAL_TIME ( 16, 49, 23.00000000000000000, #72 ) ;
#48 = DIRECTION ( 'NONE',  ( 0.000000000000000000, 0.000000000000000000, 1.000000000000000000 ) ) ;
#49 = DIRECTION ( 'NONE',  ( 0.000000000000000000, 0.000000000000000000, 1.000000000000000000 ) ) ;
#50 = DIRECTION ( 'NONE',  ( 0.000000000000000000, 0.000000000000000000, 1.000000000000000000 ) ) ;
#51 = DIRECTION ( 'NONE',  ( -0.000000000000000000, -0.000000000000000000, -1.000000000000000000 ) ) ;
#52 = CC_DESIGN_SECURITY_CLASSIFICATION ( #20, ( #88 ) ) ;
#53 = DIRECTION ( 'NONE',  ( 1.000000000000000000, 0.000000000000000000, 0.000000000000000000 ) ) ;
#54 = ORIENTED_EDGE ( 'NONE', *, *, #121, .F. ) ;
#55 = CC_DESIGN_PERSON_AND_ORGANIZATION_ASSIGNMENT ( #34, #101, ( #88 ) ) ;
#56 = APPROVAL_ROLE ( '' ) ;
#57 = FACE_OUTER_BOUND ( 'NONE', #1, .T. ) ;
#58 = SHAPE_DEFINITION_REPRESENTATION ( #9, #63 ) ;
#59 = EDGE_CURVE ( 'NONE', #65, #27, #43, .T. ) ;
#60 = EDGE_LOOP ( 'NONE', ( #92, #138 ) ) ;
#61 = PERSON_AND_ORGANIZATION ( #120, #144 ) ;
#62 = PRODUCT_RELATED_PRODUCT_CATEGORY ( 'detail', '', ( #167 ) ) ;
#63 = ADVANCED_BREP_SHAPE_REPRESENTATION ( 'Web Model 19634_19635', ( #23, #81 ), #128 ) ;
#64 = PERSON_AND_ORGANIZATION ( #120, #144 ) ;
#65 = VERTEX_POINT ( 'NONE', #136 ) ;
#66 = DIRECTION ( 'NONE',  ( 1.000000000000000000, 0.000000000000000000, 0.000000000000000000 ) ) ;
#67 = DATE_AND_TIME ( #99, #133 ) ;
#68 = DIRECTION ( 'NONE',  ( 1.000000000000000000, 0.000000000000000000, -0.000000000000000000 ) ) ;
#69 = EDGE_CURVE ( 'NONE', #27, #71, #15, .T. ) ;
#70 = CARTESIAN_POINT ( 'NONE',  ( 0.000000000000000000, 0.000000000000000000, 0.000000000000000000 ) ) ;
#71 = VERTEX_POINT ( 'NONE', #37 ) ;
#72 = COORDINATED_UNIVERSAL_TIME_OFFSET ( 5, 0, .BEHIND. ) ;
#73 = CIRCLE ( 'NONE', #75, 25.39999999999999858 ) ;
#74 = PERSON_AND_ORGANIZATION_ROLE ( 'design_owner' ) ;
#75 = AXIS2_PLACEMENT_3D ( 'NONE', #106, #48, #24 ) ;
#76 = APPROVAL_PERSON_ORGANIZATION ( #29, #91, #86 ) ;
#77 = CIRCLE ( 'NONE', #44, 25.39999999999999858 ) ;
#78 = DATE_AND_TIME ( #148, #47 ) ;
#79 = ORIENTED_EDGE ( 'NONE', *, *, #46, .T. ) ;
#80 = CC_DESIGN_DATE_AND_TIME_ASSIGNMENT ( #158, #160, ( #100 ) ) ;
#81 = AXIS2_PLACEMENT_3D ( 'NONE', #109, #40, #53 ) ;
#82 = ORIENTED_EDGE ( 'NONE', *, *, #59, .T. ) ;
#83 = PERSON_AND_ORGANIZATION ( #120, #144 ) ;
#84 = CARTESIAN_POINT ( 'NONE',  ( 25.39999999999999858, 3.110602869834276865E-15, 1.520000000000000018 ) ) ;
#85 = DIRECTION ( 'NONE',  ( 1.000000000000000000, 0.000000000000000000, 0.000000000000000000 ) ) ;
#86 = APPROVAL_ROLE ( '' ) ;
#87 = APPLICATION_PROTOCOL_DEFINITION ( 'international standard', 'config_control_design', 1994, #174 ) ;
#88 = PRODUCT_DEFINITION_FORMATION_WITH_SPECIFIED_SOURCE ( 'ANY', '', #167, .NOT_KNOWN. ) ;
#89 = ORIENTED_EDGE ( 'NONE', *, *, #59, .F. ) ;
#90 = DESIGN_CONTEXT ( 'detailed design', #174, 'design' ) ;
#91 = APPROVAL ( #102, 'UNSPECIFIED' ) ;
#92 = ORIENTED_EDGE ( 'NONE', *, *, #121, .T. ) ;
#93 = ORIENTED_EDGE ( 'NONE', *, *, #36, .T. ) ;
#94 = CALENDAR_DATE ( 2022, 11, 1 ) ;
#95 = CC_DESIGN_PERSON_AND_ORGANIZATION_ASSIGNMENT ( #61, #74, ( #167 ) ) ;
#96 = ORIENTED_EDGE ( 'NONE', *, *, #69, .F. ) ;
#97 = DIRECTION ( 'NONE',  ( -0.000000000000000000, -0.000000000000000000, -1.000000000000000000 ) ) ;
#98 = DIRECTION ( 'NONE',  ( -1.000000000000000000, 0.000000000000000000, 0.000000000000000000 ) ) ;
#99 = CALENDAR_DATE ( 2022, 11, 1 ) ;
#100 = PRODUCT_DEFINITION ( 'UNKNOWN', '', #88, #90 ) ;
#101 = PERSON_AND_ORGANIZATION_ROLE ( 'creator' ) ;
#102 = APPROVAL_STATUS ( 'not_yet_approved' ) ;
#103 = DIRECTION ( 'NONE',  ( 1.000000000000000000, 0.000000000000000000, 0.000000000000000000 ) ) ;
#104 = AXIS2_PLACEMENT_3D ( 'NONE', #159, #49, #66 ) ;
#105 = ADVANCED_FACE ( 'NONE', ( #38 ), #122, .T. ) ;
#106 = CARTESIAN_POINT ( 'NONE',  ( 0.000000000000000000, 0.000000000000000000, 1.520000000000000018 ) ) ;
#107 = ORIENTED_EDGE ( 'NONE', *, *, #69, .T. ) ;
#108 = CARTESIAN_POINT ( 'NONE',  ( 0.000000000000000000, 0.000000000000000000, 1.520000000000000018 ) ) ;
#109 = CARTESIAN_POINT ( 'NONE',  ( 0.000000000000000000, 0.000000000000000000, 0.000000000000000000 ) ) ;
#110 = CARTESIAN_POINT ( 'NONE',  ( -25.39999999999999858, 0.000000000000000000, 0.000000000000000000 ) ) ;
#111 = ADVANCED_FACE ( 'NONE', ( #6 ), #157, .T. ) ;
#112 =( NAMED_UNIT ( * ) PLANE_ANGLE_UNIT ( ) SI_UNIT ( $, .RADIAN. ) );
#113 = DATE_AND_TIME ( #94, #31 ) ;
#114 = PERSON_AND_ORGANIZATION_ROLE ( 'creator' ) ;
#115 = CYLINDRICAL_SURFACE ( 'NONE', #163, 25.39999999999999858 ) ;
#116 = VECTOR ( 'NONE', #51, 1000.000000000000000 ) ;
#117 = APPROVAL_DATE_TIME ( #113, #91 ) ;
#118 = UNCERTAINTY_MEASURE_WITH_UNIT (LENGTH_MEASURE( 1.000000000000000082E-05 ), #2, 'distance_accuracy_value', 'NONE');
#119 = APPROVAL ( #126, 'UNSPECIFIED' ) ;
#120 = PERSON ( 'UNSPECIFIED', 'UNSPECIFIED', 'UNSPECIFIED', ('UNSPECIFIED'), ('UNSPECIFIED'), ('UNSPECIFIED') ) ;
#121 = EDGE_CURVE ( 'NONE', #65, #175, #77, .T. ) ;
#122 = CYLINDRICAL_SURFACE ( 'NONE', #162, 25.39999999999999858 ) ;
#123 = LOCAL_TIME ( 16, 49, 23.00000000000000000, #18 ) ;
#124 = PLANE ( 'NONE',  #134 ) ;
#125 = APPLICATION_CONTEXT ( 'configuration controlled 3d designs of mechanical parts and assemblies' ) ;
#126 = APPROVAL_STATUS ( 'not_yet_approved' ) ;
#127 = AXIS2_PLACEMENT_3D ( 'NONE', #70, #50, #85 ) ;
#128 =( GEOMETRIC_REPRESENTATION_CONTEXT ( 3 ) GLOBAL_UNCERTAINTY_ASSIGNED_CONTEXT ( ( #118 ) ) GLOBAL_UNIT_ASSIGNED_CONTEXT ( ( #2, #112, #152 ) ) REPRESENTATION_CONTEXT ( 'NONE', 'WORKASPACE' ) );
#129 = ORIENTED_EDGE ( 'NONE', *, *, #36, .F. ) ;
#130 = CC_DESIGN_DATE_AND_TIME_ASSIGNMENT ( #131, #26, ( #20 ) ) ;
#131 = DATE_AND_TIME ( #7, #123 ) ;
#132 = CALENDAR_DATE ( 2022, 11, 1 ) ;
#133 = LOCAL_TIME ( 16, 49, 23.00000000000000000, #164 ) ;
#134 = AXIS2_PLACEMENT_3D ( 'NONE', #146, #4, #68 ) ;
#135 = CARTESIAN_POINT ( 'NONE',  ( 0.000000000000000000, 0.000000000000000000, 1.520000000000000018 ) ) ;
#136 = CARTESIAN_POINT ( 'NONE',  ( -25.39999999999999858, 0.000000000000000000, 1.520000000000000018 ) ) ;
#137 = DIRECTION ( 'NONE',  ( -0.000000000000000000, -0.000000000000000000, -1.000000000000000000 ) ) ;
#138 = ORIENTED_EDGE ( 'NONE', *, *, #5, .T. ) ;
#139 = DIRECTION ( 'NONE',  ( -0.000000000000000000, -0.000000000000000000, -1.000000000000000000 ) ) ;
#140 = PERSON_AND_ORGANIZATION_ROLE ( 'classification_officer' ) ;
#141 = PERSON_AND_ORGANIZATION ( #120, #144 ) ;
#142 = APPROVAL_STATUS ( 'not_yet_approved' ) ;
#143 = EDGE_LOOP ( 'NONE', ( #96, #166 ) ) ;
#144 = ORGANIZATION ( 'UNSPECIFIED', 'UNSPECIFIED', '' ) ;
#145 = CC_DESIGN_APPROVAL ( #91, ( #88 ) ) ;
#146 = CARTESIAN_POINT ( 'NONE',  ( 0.000000000000000000, 0.000000000000000000, 0.000000000000000000 ) ) ;
#147 = APPROVAL ( #142, 'UNSPECIFIED' ) ;
#148 = CALENDAR_DATE ( 2022, 11, 1 ) ;
#149 = DIRECTION ( 'NONE',  ( 0.000000000000000000, 0.000000000000000000, 1.000000000000000000 ) ) ;
#150 = CARTESIAN_POINT ( 'NONE',  ( 25.39999999999999858, 3.110602869834276865E-15, 1.520000000000000018 ) ) ;
#151 = LINE ( 'NONE', #150, #12 ) ;
#152 =( NAMED_UNIT ( * ) SI_UNIT ( $, .STERADIAN. ) SOLID_ANGLE_UNIT ( ) );
#153 = CC_DESIGN_APPROVAL ( #147, ( #100 ) ) ;
#154 = APPROVAL_PERSON_ORGANIZATION ( #64, #119, #56 ) ;
#155 = CIRCLE ( 'NONE', #104, 25.39999999999999858 ) ;
#156 = CARTESIAN_POINT ( 'NONE',  ( 0.000000000000000000, 0.000000000000000000, 1.520000000000000018 ) ) ;
#157 = PLANE ( 'NONE',  #17 ) ;
#158 = DATE_AND_TIME ( #132, #22 ) ;
#159 = CARTESIAN_POINT ( 'NONE',  ( 0.000000000000000000, 0.000000000000000000, 0.000000000000000000 ) ) ;
#160 = DATE_TIME_ROLE ( 'creation_date' ) ;
#161 = APPLICATION_PROTOCOL_DEFINITION ( 'international standard', 'config_control_design', 1994, #125 ) ;
#162 = AXIS2_PLACEMENT_3D ( 'NONE', #156, #139, #171 ) ;
#163 = AXIS2_PLACEMENT_3D ( 'NONE', #135, #97, #98 ) ;
#164 = COORDINATED_UNIVERSAL_TIME_OFFSET ( 5, 0, .BEHIND. ) ;
#165 = COORDINATED_UNIVERSAL_TIME_OFFSET ( 5, 0, .BEHIND. ) ;
#166 = ORIENTED_EDGE ( 'NONE', *, *, #46, .F. ) ;
#167 = PRODUCT ( 'Web Model 19634_19635', 'Web Model 19634_19635', '', ( #41 ) ) ;
#168 = CC_DESIGN_PERSON_AND_ORGANIZATION_ASSIGNMENT ( #3, #114, ( #100 ) ) ;
#169 = APPROVAL_PERSON_ORGANIZATION ( #28, #147, #172 ) ;
#170 = CC_DESIGN_PERSON_AND_ORGANIZATION_ASSIGNMENT ( #83, #11, ( #88 ) ) ;
#171 = DIRECTION ( 'NONE',  ( -1.000000000000000000, 0.000000000000000000, 0.000000000000000000 ) ) ;
#172 = APPROVAL_ROLE ( '' ) ;
#173 = DIRECTION ( 'NONE',  ( 0.000000000000000000, 0.000000000000000000, 1.000000000000000000 ) ) ;
#174 = APPLICATION_CONTEXT ( 'configuration controlled 3d designs of mechanical parts and assemblies' ) ;
#175 = VERTEX_POINT ( 'NONE', #84 ) ;
ENDSEC;
END-ISO-10303-21;
