ISO-10303-21;
HEADER;
FILE_DESCRIPTION (( 'STEP AP203' ),
    '1' );
FILE_NAME ('Web Model 45258.STEP',
    '2017-01-31T15:17:36',
    ( '' ),
    ( '' ),
    'SwSTEP 2.0',
    'SolidWorks 2016',
    '' );
FILE_SCHEMA (( 'CONFIG_CONTROL_DESIGN' ));
ENDSEC;

DATA;
#1 = PRODUCT_DEFINITION_FORMATION_WITH_SPECIFIED_SOURCE ( 'ANY', '', #149, .NOT_KNOWN. ) ;
#2 = DIRECTION ( 'NONE',  ( 0.0000000000000000000, 0.0000000000000000000, 1.000000000000000000 ) ) ;
#3 = EDGE_CURVE ( 'NONE', #10, #76, #61, .T. ) ;
#4 = DIRECTION ( 'NONE',  ( 1.000000000000000000, 0.0000000000000000000, 0.0000000000000000000 ) ) ;
#5 = ORIENTED_EDGE ( 'NONE', *, *, #153, .T. ) ;
#6 = APPROVAL_DATE_TIME ( #117, #79 ) ;
#7 = COORDINATED_UNIVERSAL_TIME_OFFSET ( 5, 0, .BEHIND. ) ;
#8 = CARTESIAN_POINT ( 'NONE',  ( 0.0000000000000000000, 0.0000000000000000000, 0.0000000000000000000 ) ) ;
#9 = DIRECTION ( 'NONE',  ( 0.0000000000000000000, 0.0000000000000000000, 1.000000000000000000 ) ) ;
#10 = VERTEX_POINT ( 'NONE', #148 ) ;
#11 = DIRECTION ( 'NONE',  ( 0.0000000000000000000, 0.0000000000000000000, 1.000000000000000000 ) ) ;
#12 = APPROVAL_DATE_TIME ( #52, #29 ) ;
#13 = EDGE_CURVE ( 'NONE', #10, #151, #90, .T. ) ;
#14 = ORIENTED_EDGE ( 'NONE', *, *, #60, .F. ) ;
#15 = DATE_AND_TIME ( #169, #105 ) ;
#16 = CC_DESIGN_PERSON_AND_ORGANIZATION_ASSIGNMENT ( #125, #18, ( #63 ) ) ;
#17 = DIRECTION ( 'NONE',  ( 1.000000000000000000, 0.0000000000000000000, 0.0000000000000000000 ) ) ;
#18 = PERSON_AND_ORGANIZATION_ROLE ( 'creator' ) ;
#19 = LINE ( 'NONE', #112, #84 ) ;
#20 = DATE_TIME_ROLE ( 'creation_date' ) ;
#21 = PERSON_AND_ORGANIZATION ( #88, #108 ) ;
#22 = PLANE ( 'NONE',  #58 ) ;
#23 = DIRECTION ( 'NONE',  ( 0.0000000000000000000, 0.0000000000000000000, 1.000000000000000000 ) ) ;
#24 = ORIENTED_EDGE ( 'NONE', *, *, #32, .T. ) ;
#25 = APPROVAL_DATE_TIME ( #15, #81 ) ;
#26 = AXIS2_PLACEMENT_3D ( 'NONE', #99, #39, #133 ) ;
#27 = DIRECTION ( 'NONE',  ( 1.000000000000000000, 0.0000000000000000000, -0.0000000000000000000 ) ) ;
#28 = PERSON_AND_ORGANIZATION ( #88, #108 ) ;
#29 = APPROVAL ( #72, 'UNSPECIFIED' ) ;
#30 = ORIENTED_EDGE ( 'NONE', *, *, #3, .T. ) ;
#31 = PERSON_AND_ORGANIZATION ( #88, #108 ) ;
#32 = EDGE_CURVE ( 'NONE', #50, #151, #124, .T. ) ;
#33 = FACE_OUTER_BOUND ( 'NONE', #146, .T. ) ;
#34 = PERSON_AND_ORGANIZATION_ROLE ( 'creator' ) ;
#35 = DIRECTION ( 'NONE',  ( 0.0000000000000000000, 0.0000000000000000000, 1.000000000000000000 ) ) ;
#36 = DIRECTION ( 'NONE',  ( 0.0000000000000000000, 0.0000000000000000000, 1.000000000000000000 ) ) ;
#37 = APPROVAL_PERSON_ORGANIZATION ( #147, #81, #131 ) ;
#38 = APPROVAL_STATUS ( 'not_yet_approved' ) ;
#39 = DIRECTION ( 'NONE',  ( 0.0000000000000000000, 0.0000000000000000000, 1.000000000000000000 ) ) ;
#40 = CARTESIAN_POINT ( 'NONE',  ( 0.0000000000000000000, 0.0000000000000000000, 0.0000000000000000000 ) ) ;
#41 = PLANE ( 'NONE',  #85 ) ;
#42 = EDGE_LOOP ( 'NONE', ( #14, #152, #114, #80 ) ) ;
#43 = DIRECTION ( 'NONE',  ( 0.0000000000000000000, 0.0000000000000000000, 1.000000000000000000 ) ) ;
#44 = CYLINDRICAL_SURFACE ( 'NONE', #115, 12.50000000000000000 ) ;
#45 = DESIGN_CONTEXT ( 'detailed design', #161, 'design' ) ;
#46 = LOCAL_TIME ( 10, 17, 36.00000000000000000, #111 ) ;
#47 = EDGE_CURVE ( 'NONE', #76, #10, #164, .T. ) ;
#48 = LOCAL_TIME ( 10, 17, 36.00000000000000000, #132 ) ;
#49 = APPROVAL_STATUS ( 'not_yet_approved' ) ;
#50 = VERTEX_POINT ( 'NONE', #83 ) ;
#51 = CALENDAR_DATE ( 2017, 31, 1 ) ;
#52 = DATE_AND_TIME ( #82, #127 ) ;
#53 =( LENGTH_UNIT ( ) NAMED_UNIT ( * ) SI_UNIT ( .MILLI., .METRE. ) );
#54 = AXIS2_PLACEMENT_3D ( 'NONE', #166, #35, #4 ) ;
#55 = PERSON_AND_ORGANIZATION_ROLE ( 'design_owner' ) ;
#56 = DIRECTION ( 'NONE',  ( 0.0000000000000000000, 0.0000000000000000000, 1.000000000000000000 ) ) ;
#57 = COORDINATED_UNIVERSAL_TIME_OFFSET ( 5, 0, .BEHIND. ) ;
#58 = AXIS2_PLACEMENT_3D ( 'NONE', #40, #118, #87 ) ;
#59 = VECTOR ( 'NONE', #36, 1000.000000000000000 ) ;
#60 = EDGE_CURVE ( 'NONE', #76, #50, #19, .T. ) ;
#61 = CIRCLE ( 'NONE', #26, 12.50000000000000000 ) ;
#62 = APPROVAL_ROLE ( '' ) ;
#63 = PRODUCT_DEFINITION ( 'UNKNOWN', '', #1, #45 ) ;
#64 = ORIENTED_EDGE ( 'NONE', *, *, #3, .F. ) ;
#65 = DATE_AND_TIME ( #71, #46 ) ;
#66 = CARTESIAN_POINT ( 'NONE',  ( 0.0000000000000000000, 0.0000000000000000000, 0.0000000000000000000 ) ) ;
#67 = FACE_OUTER_BOUND ( 'NONE', #107, .T. ) ;
#68 = UNCERTAINTY_MEASURE_WITH_UNIT (LENGTH_MEASURE( 1.000000000000000100E-005 ), #53, 'distance_accuracy_value', 'NONE');
#69 = CLOSED_SHELL ( 'NONE', ( #143, #126, #95, #172 ) ) ;
#70 = CC_DESIGN_PERSON_AND_ORGANIZATION_ASSIGNMENT ( #21, #34, ( #1 ) ) ;
#71 = CALENDAR_DATE ( 2017, 31, 1 ) ;
#72 = APPROVAL_STATUS ( 'not_yet_approved' ) ;
#73 = ORIENTED_EDGE ( 'NONE', *, *, #153, .F. ) ;
#74 = PERSON_AND_ORGANIZATION ( #88, #108 ) ;
#75 = DATE_TIME_ROLE ( 'classification_date' ) ;
#76 = VERTEX_POINT ( 'NONE', #96 ) ;
#77 = CARTESIAN_POINT ( 'NONE',  ( 0.0000000000000000000, 0.0000000000000000000, -4.000000000000000000 ) ) ;
#78 = SHAPE_DEFINITION_REPRESENTATION ( #128, #155 ) ;
#79 = APPROVAL ( #38, 'UNSPECIFIED' ) ;
#80 = ORIENTED_EDGE ( 'NONE', *, *, #32, .F. ) ;
#81 = APPROVAL ( #49, 'UNSPECIFIED' ) ;
#82 = CALENDAR_DATE ( 2017, 31, 1 ) ;
#83 = CARTESIAN_POINT ( 'NONE',  ( -12.50000000000000000, 1.530808498934191500E-015, 0.0000000000000000000 ) ) ;
#84 = VECTOR ( 'NONE', #129, 1000.000000000000000 ) ;
#85 = AXIS2_PLACEMENT_3D ( 'NONE', #136, #43, #27 ) ;
#86 = CALENDAR_DATE ( 2017, 31, 1 ) ;
#87 = DIRECTION ( 'NONE',  ( 1.000000000000000000, 0.0000000000000000000, -0.0000000000000000000 ) ) ;
#88 = PERSON ( 'UNSPECIFIED', 'UNSPECIFIED', 'UNSPECIFIED', ('UNSPECIFIED'), ('UNSPECIFIED'), ('UNSPECIFIED') ) ;
#89 = CC_DESIGN_SECURITY_CLASSIFICATION ( #93, ( #1 ) ) ;
#90 = LINE ( 'NONE', #116, #59 ) ;
#91 = APPLICATION_PROTOCOL_DEFINITION ( 'international standard', 'config_control_design', 1994, #137 ) ;
#92 = LOCAL_TIME ( 10, 17, 36.00000000000000000, #57 ) ;
#93 = SECURITY_CLASSIFICATION ( '', '', #156 ) ;
#94 = FACE_OUTER_BOUND ( 'NONE', #134, .T. ) ;
#95 = ADVANCED_FACE ( 'NONE', ( #94 ), #41, .F. ) ;
#96 = CARTESIAN_POINT ( 'NONE',  ( -12.50000000000000000, 1.530808498934191500E-015, -4.000000000000000000 ) ) ;
#97 = APPLICATION_PROTOCOL_DEFINITION ( 'international standard', 'config_control_design', 1994, #161 ) ;
#98 = CARTESIAN_POINT ( 'NONE',  ( 0.0000000000000000000, 0.0000000000000000000, 0.0000000000000000000 ) ) ;
#99 = CARTESIAN_POINT ( 'NONE',  ( 0.0000000000000000000, 0.0000000000000000000, -4.000000000000000000 ) ) ;
#100 = CC_DESIGN_APPROVAL ( #81, ( #63 ) ) ;
#101 = DIRECTION ( 'NONE',  ( 1.000000000000000000, 0.0000000000000000000, 0.0000000000000000000 ) ) ;
#102 = DIRECTION ( 'NONE',  ( 1.000000000000000000, 0.0000000000000000000, 0.0000000000000000000 ) ) ;
#103 = CARTESIAN_POINT ( 'NONE',  ( 12.50000000000000000, 0.0000000000000000000, 0.0000000000000000000 ) ) ;
#104 = CYLINDRICAL_SURFACE ( 'NONE', #138, 12.50000000000000000 ) ;
#105 = LOCAL_TIME ( 10, 17, 36.00000000000000000, #171 ) ;
#106 = CC_DESIGN_PERSON_AND_ORGANIZATION_ASSIGNMENT ( #119, #145, ( #1 ) ) ;
#107 = EDGE_LOOP ( 'NONE', ( #30, #157, #73, #130 ) ) ;
#108 = ORGANIZATION ( 'UNSPECIFIED', 'UNSPECIFIED', '' ) ;
#109 = FACE_OUTER_BOUND ( 'NONE', #42, .T. ) ;
#110 = CC_DESIGN_DATE_AND_TIME_ASSIGNMENT ( #140, #75, ( #93 ) ) ;
#111 = COORDINATED_UNIVERSAL_TIME_OFFSET ( 5, 0, .BEHIND. ) ;
#112 = CARTESIAN_POINT ( 'NONE',  ( -12.50000000000000000, 1.530808498934191500E-015, -4.000000000000000000 ) ) ;
#113 = APPROVAL_ROLE ( '' ) ;
#114 = ORIENTED_EDGE ( 'NONE', *, *, #13, .T. ) ;
#115 = AXIS2_PLACEMENT_3D ( 'NONE', #77, #56, #139 ) ;
#116 = CARTESIAN_POINT ( 'NONE',  ( 12.50000000000000000, 0.0000000000000000000, -4.000000000000000000 ) ) ;
#117 = DATE_AND_TIME ( #51, #48 ) ;
#118 = DIRECTION ( 'NONE',  ( 0.0000000000000000000, 0.0000000000000000000, 1.000000000000000000 ) ) ;
#119 = PERSON_AND_ORGANIZATION ( #88, #108 ) ;
#120 = PRODUCT_RELATED_PRODUCT_CATEGORY ( 'detail', '', ( #149 ) ) ;
#121 = CARTESIAN_POINT ( 'NONE',  ( 0.0000000000000000000, 0.0000000000000000000, -4.000000000000000000 ) ) ;
#122 = MECHANICAL_CONTEXT ( 'NONE', #137, 'mechanical' ) ;
#123 = APPROVAL_PERSON_ORGANIZATION ( #31, #29, #113 ) ;
#124 = CIRCLE ( 'NONE', #167, 12.50000000000000000 ) ;
#125 = PERSON_AND_ORGANIZATION ( #88, #108 ) ;
#126 = ADVANCED_FACE ( 'NONE', ( #109 ), #44, .T. ) ;
#127 = LOCAL_TIME ( 10, 17, 36.00000000000000000, #7 ) ;
#128 = PRODUCT_DEFINITION_SHAPE ( 'NONE', 'NONE',  #63 ) ;
#129 = DIRECTION ( 'NONE',  ( 0.0000000000000000000, 0.0000000000000000000, 1.000000000000000000 ) ) ;
#130 = ORIENTED_EDGE ( 'NONE', *, *, #13, .F. ) ;
#131 = APPROVAL_ROLE ( '' ) ;
#132 = COORDINATED_UNIVERSAL_TIME_OFFSET ( 5, 0, .BEHIND. ) ;
#133 = DIRECTION ( 'NONE',  ( 1.000000000000000000, 0.0000000000000000000, 0.0000000000000000000 ) ) ;
#134 = EDGE_LOOP ( 'NONE', ( #64, #173 ) ) ;
#135 =( NAMED_UNIT ( * ) SI_UNIT ( $, .STERADIAN. ) SOLID_ANGLE_UNIT ( ) );
#136 = CARTESIAN_POINT ( 'NONE',  ( 0.0000000000000000000, 0.0000000000000000000, -4.000000000000000000 ) ) ;
#137 = APPLICATION_CONTEXT ( 'configuration controlled 3d designs of mechanical parts and assemblies' ) ;
#138 = AXIS2_PLACEMENT_3D ( 'NONE', #121, #11, #160 ) ;
#139 = DIRECTION ( 'NONE',  ( 1.000000000000000000, 0.0000000000000000000, 0.0000000000000000000 ) ) ;
#140 = DATE_AND_TIME ( #86, #92 ) ;
#141 = MANIFOLD_SOLID_BREP ( 'Extrude1', #69 ) ;
#142 = AXIS2_PLACEMENT_3D ( 'NONE', #66, #9, #102 ) ;
#143 = ADVANCED_FACE ( 'NONE', ( #67 ), #104, .T. ) ;
#144 = CC_DESIGN_PERSON_AND_ORGANIZATION_ASSIGNMENT ( #162, #168, ( #93 ) ) ;
#145 = PERSON_AND_ORGANIZATION_ROLE ( 'design_supplier' ) ;
#146 = EDGE_LOOP ( 'NONE', ( #5, #24 ) ) ;
#147 = PERSON_AND_ORGANIZATION ( #88, #108 ) ;
#148 = CARTESIAN_POINT ( 'NONE',  ( 12.50000000000000000, 0.0000000000000000000, -4.000000000000000000 ) ) ;
#149 = PRODUCT ( 'Web Model 45258', 'Web Model 45258', '', ( #122 ) ) ;
#150 = CC_DESIGN_APPROVAL ( #79, ( #93 ) ) ;
#151 = VERTEX_POINT ( 'NONE', #103 ) ;
#152 = ORIENTED_EDGE ( 'NONE', *, *, #47, .T. ) ;
#153 = EDGE_CURVE ( 'NONE', #151, #50, #175, .T. ) ;
#154 = CC_DESIGN_DATE_AND_TIME_ASSIGNMENT ( #65, #20, ( #63 ) ) ;
#155 = ADVANCED_BREP_SHAPE_REPRESENTATION ( 'Web Model 45258', ( #141, #142 ), #159 ) ;
#156 = SECURITY_CLASSIFICATION_LEVEL ( 'unclassified' ) ;
#157 = ORIENTED_EDGE ( 'NONE', *, *, #60, .T. ) ;
#158 =( NAMED_UNIT ( * ) PLANE_ANGLE_UNIT ( ) SI_UNIT ( $, .RADIAN. ) );
#159 =( GEOMETRIC_REPRESENTATION_CONTEXT ( 3 ) GLOBAL_UNCERTAINTY_ASSIGNED_CONTEXT ( ( #68 ) ) GLOBAL_UNIT_ASSIGNED_CONTEXT ( ( #53, #158, #135 ) ) REPRESENTATION_CONTEXT ( 'NONE', 'WORKASPACE' ) );
#160 = DIRECTION ( 'NONE',  ( 1.000000000000000000, 0.0000000000000000000, 0.0000000000000000000 ) ) ;
#161 = APPLICATION_CONTEXT ( 'configuration controlled 3d designs of mechanical parts and assemblies' ) ;
#162 = PERSON_AND_ORGANIZATION ( #88, #108 ) ;
#163 = CC_DESIGN_PERSON_AND_ORGANIZATION_ASSIGNMENT ( #74, #55, ( #149 ) ) ;
#164 = CIRCLE ( 'NONE', #54, 12.50000000000000000 ) ;
#165 = APPROVAL_PERSON_ORGANIZATION ( #28, #79, #62 ) ;
#166 = CARTESIAN_POINT ( 'NONE',  ( 0.0000000000000000000, 0.0000000000000000000, -4.000000000000000000 ) ) ;
#167 = AXIS2_PLACEMENT_3D ( 'NONE', #98, #2, #17 ) ;
#168 = PERSON_AND_ORGANIZATION_ROLE ( 'classification_officer' ) ;
#169 = CALENDAR_DATE ( 2017, 31, 1 ) ;
#170 = CC_DESIGN_APPROVAL ( #29, ( #1 ) ) ;
#171 = COORDINATED_UNIVERSAL_TIME_OFFSET ( 5, 0, .BEHIND. ) ;
#172 = ADVANCED_FACE ( 'NONE', ( #33 ), #22, .T. ) ;
#173 = ORIENTED_EDGE ( 'NONE', *, *, #47, .F. ) ;
#174 = AXIS2_PLACEMENT_3D ( 'NONE', #8, #23, #101 ) ;
#175 = CIRCLE ( 'NONE', #174, 12.50000000000000000 ) ;
ENDSEC;
END-ISO-10303-21;
