ISO-10303-21;
HEADER;
FILE_DESCRIPTION (( 'STEP AP203' ),
    '1' );
FILE_NAME ('Web Model 46457_47610.step',
    '2018-03-15T18:31:33',
    ( '' ),
    ( '' ),
    'SwSTEP 2.0',
    'SolidWorks 2016',
    '' );
FILE_SCHEMA (( 'CONFIG_CONTROL_DESIGN' ));
ENDSEC;

DATA;
#1 = EDGE_CURVE ( 'NONE', #129, #93, #35, .T. ) ;
#2 = PERSON_AND_ORGANIZATION_ROLE ( 'design_owner' ) ;
#3 = LOCAL_TIME ( 14, 31, 33.00000000000000000, #67 ) ;
#4 = DIRECTION ( 'NONE',  ( 1.000000000000000000, 0.0000000000000000000, 0.0000000000000000000 ) ) ;
#5 = EDGE_LOOP ( 'NONE', ( #8, #137 ) ) ;
#6 = CARTESIAN_POINT ( 'NONE',  ( 0.7500000000000000000, 0.0000000000000000000, 0.0000000000000000000 ) ) ;
#7 = FACE_OUTER_BOUND ( 'NONE', #37, .T. ) ;
#8 = ORIENTED_EDGE ( 'NONE', *, *, #148, .F. ) ;
#9 = APPROVAL_DATE_TIME ( #92, #110 ) ;
#10 = EDGE_LOOP ( 'NONE', ( #173, #156 ) ) ;
#11 = CALENDAR_DATE ( 2018, 15, 3 ) ;
#12 = LINE ( 'NONE', #58, #84 ) ;
#13 = AXIS2_PLACEMENT_3D ( 'NONE', #88, #18, #101 ) ;
#14 = AXIS2_PLACEMENT_3D ( 'NONE', #163, #16, #50 ) ;
#15 = PLANE ( 'NONE',  #21 ) ;
#16 = DIRECTION ( 'NONE',  ( 1.000000000000000000, 0.0000000000000000000, 0.0000000000000000000 ) ) ;
#17 = FACE_OUTER_BOUND ( 'NONE', #40, .T. ) ;
#18 = DIRECTION ( 'NONE',  ( 1.000000000000000000, 0.0000000000000000000, 0.0000000000000000000 ) ) ;
#19 = APPROVAL_STATUS ( 'not_yet_approved' ) ;
#20 = APPROVAL_STATUS ( 'not_yet_approved' ) ;
#21 = AXIS2_PLACEMENT_3D ( 'NONE', #160, #4, #42 ) ;
#22 = APPROVAL_PERSON_ORGANIZATION ( #175, #38, #63 ) ;
#23 = APPROVAL_PERSON_ORGANIZATION ( #65, #110, #31 ) ;
#24 = CIRCLE ( 'NONE', #14, 6.349999999999999600 ) ;
#25 = DIRECTION ( 'NONE',  ( -1.000000000000000000, -0.0000000000000000000, -0.0000000000000000000 ) ) ;
#26 = PRODUCT_DEFINITION_SHAPE ( 'NONE', 'NONE',  #64 ) ;
#27 = CARTESIAN_POINT ( 'NONE',  ( 0.7500000000000000000, 0.0000000000000000000, 6.349999999999999600 ) ) ;
#28 = CARTESIAN_POINT ( 'NONE',  ( -0.7500000000000000000, 0.0000000000000000000, 6.349999999999999600 ) ) ;
#29 = COORDINATED_UNIVERSAL_TIME_OFFSET ( 5, 0, .BEHIND. ) ;
#30 = ADVANCED_FACE ( 'NONE', ( #134 ), #118, .F. ) ;
#31 = APPROVAL_ROLE ( '' ) ;
#32 = VERTEX_POINT ( 'NONE', #83 ) ;
#33 = AXIS2_PLACEMENT_3D ( 'NONE', #125, #51, #49 ) ;
#34 = APPROVAL_PERSON_ORGANIZATION ( #133, #164, #61 ) ;
#35 = LINE ( 'NONE', #98, #117 ) ;
#36 = VERTEX_POINT ( 'NONE', #59 ) ;
#37 = EDGE_LOOP ( 'NONE', ( #138, #123, #128, #151 ) ) ;
#38 = APPROVAL ( #19, 'UNSPECIFIED' ) ;
#39 = AXIS2_PLACEMENT_3D ( 'NONE', #161, #150, #165 ) ;
#40 = EDGE_LOOP ( 'NONE', ( #68, #62, #97, #124 ) ) ;
#41 = ADVANCED_FACE ( 'NONE', ( #17 ), #107, .T. ) ;
#42 = DIRECTION ( 'NONE',  ( 0.0000000000000000000, 0.0000000000000000000, -1.000000000000000000 ) ) ;
#43 = PERSON_AND_ORGANIZATION ( #122, #66 ) ;
#44 =( LENGTH_UNIT ( ) NAMED_UNIT ( * ) SI_UNIT ( .MILLI., .METRE. ) );
#45 = CALENDAR_DATE ( 2018, 15, 3 ) ;
#46 = PERSON_AND_ORGANIZATION_ROLE ( 'creator' ) ;
#47 = CC_DESIGN_DATE_AND_TIME_ASSIGNMENT ( #140, #166, ( #64 ) ) ;
#48 = CALENDAR_DATE ( 2018, 15, 3 ) ;
#49 = DIRECTION ( 'NONE',  ( 0.0000000000000000000, 0.0000000000000000000, -1.000000000000000000 ) ) ;
#50 = DIRECTION ( 'NONE',  ( 0.0000000000000000000, 0.0000000000000000000, -1.000000000000000000 ) ) ;
#51 = DIRECTION ( 'NONE',  ( 1.000000000000000000, 0.0000000000000000000, 0.0000000000000000000 ) ) ;
#52 = EDGE_CURVE ( 'NONE', #32, #129, #54, .T. ) ;
#53 =( GEOMETRIC_REPRESENTATION_CONTEXT ( 3 ) GLOBAL_UNCERTAINTY_ASSIGNED_CONTEXT ( ( #96 ) ) GLOBAL_UNIT_ASSIGNED_CONTEXT ( ( #44, #146, #131 ) ) REPRESENTATION_CONTEXT ( 'NONE', 'WORKASPACE' ) );
#54 = CIRCLE ( 'NONE', #171, 6.349999999999999600 ) ;
#55 = CC_DESIGN_PERSON_AND_ORGANIZATION_ASSIGNMENT ( #109, #46, ( #113 ) ) ;
#56 = SHAPE_DEFINITION_REPRESENTATION ( #26, #155 ) ;
#57 = DIRECTION ( 'NONE',  ( -1.000000000000000000, -0.0000000000000000000, -0.0000000000000000000 ) ) ;
#58 = CARTESIAN_POINT ( 'NONE',  ( 0.7500000000000000000, 7.776507174585692200E-016, -6.349999999999999600 ) ) ;
#59 = CARTESIAN_POINT ( 'NONE',  ( -0.7500000000000000000, 7.776507174585692200E-016, -6.349999999999999600 ) ) ;
#60 = CC_DESIGN_APPROVAL ( #38, ( #64 ) ) ;
#61 = APPROVAL_ROLE ( '' ) ;
#62 = ORIENTED_EDGE ( 'NONE', *, *, #135, .T. ) ;
#63 = APPROVAL_ROLE ( '' ) ;
#64 = PRODUCT_DEFINITION ( 'UNKNOWN', '', #113, #158 ) ;
#65 = PERSON_AND_ORGANIZATION ( #122, #66 ) ;
#66 = ORGANIZATION ( 'UNSPECIFIED', 'UNSPECIFIED', '' ) ;
#67 = COORDINATED_UNIVERSAL_TIME_OFFSET ( 5, 0, .BEHIND. ) ;
#68 = ORIENTED_EDGE ( 'NONE', *, *, #52, .F. ) ;
#69 = CARTESIAN_POINT ( 'NONE',  ( 0.0000000000000000000, 0.0000000000000000000, 0.0000000000000000000 ) ) ;
#70 = CARTESIAN_POINT ( 'NONE',  ( 0.7500000000000000000, 0.0000000000000000000, 0.0000000000000000000 ) ) ;
#71 = DIRECTION ( 'NONE',  ( 0.0000000000000000000, 0.0000000000000000000, 1.000000000000000000 ) ) ;
#72 = COORDINATED_UNIVERSAL_TIME_OFFSET ( 5, 0, .BEHIND. ) ;
#73 = COORDINATED_UNIVERSAL_TIME_OFFSET ( 5, 0, .BEHIND. ) ;
#74 = CC_DESIGN_DATE_AND_TIME_ASSIGNMENT ( #82, #169, ( #77 ) ) ;
#75 = LOCAL_TIME ( 14, 31, 33.00000000000000000, #29 ) ;
#76 = LOCAL_TIME ( 14, 31, 33.00000000000000000, #73 ) ;
#77 = SECURITY_CLASSIFICATION ( '', '', #153 ) ;
#78 = CYLINDRICAL_SURFACE ( 'NONE', #85, 6.349999999999999600 ) ;
#79 = CC_DESIGN_APPROVAL ( #164, ( #113 ) ) ;
#80 = APPLICATION_CONTEXT ( 'configuration controlled 3d designs of mechanical parts and assemblies' ) ;
#81 = CC_DESIGN_PERSON_AND_ORGANIZATION_ASSIGNMENT ( #95, #2, ( #172 ) ) ;
#82 = DATE_AND_TIME ( #48, #154 ) ;
#83 = CARTESIAN_POINT ( 'NONE',  ( 0.7500000000000000000, 7.776507174585692200E-016, -6.349999999999999600 ) ) ;
#84 = VECTOR ( 'NONE', #25, 1000.000000000000000 ) ;
#85 = AXIS2_PLACEMENT_3D ( 'NONE', #6, #119, #87 ) ;
#86 = ADVANCED_FACE ( 'NONE', ( #111 ), #15, .T. ) ;
#87 = DIRECTION ( 'NONE',  ( 0.0000000000000000000, 0.0000000000000000000, 1.000000000000000000 ) ) ;
#88 = CARTESIAN_POINT ( 'NONE',  ( 0.7500000000000000000, 0.0000000000000000000, 0.0000000000000000000 ) ) ;
#89 = CC_DESIGN_SECURITY_CLASSIFICATION ( #77, ( #113 ) ) ;
#90 = APPLICATION_PROTOCOL_DEFINITION ( 'international standard', 'config_control_design', 1994, #80 ) ;
#91 = DATE_AND_TIME ( #11, #75 ) ;
#92 = DATE_AND_TIME ( #136, #76 ) ;
#93 = VERTEX_POINT ( 'NONE', #28 ) ;
#94 = CC_DESIGN_PERSON_AND_ORGANIZATION_ASSIGNMENT ( #103, #170, ( #113 ) ) ;
#95 = PERSON_AND_ORGANIZATION ( #122, #66 ) ;
#96 = UNCERTAINTY_MEASURE_WITH_UNIT (LENGTH_MEASURE( 1.000000000000000100E-005 ), #44, 'distance_accuracy_value', 'NONE');
#97 = ORIENTED_EDGE ( 'NONE', *, *, #141, .T. ) ;
#98 = CARTESIAN_POINT ( 'NONE',  ( 0.7500000000000000000, 0.0000000000000000000, 6.349999999999999600 ) ) ;
#99 = DIRECTION ( 'NONE',  ( 0.0000000000000000000, 0.0000000000000000000, 1.000000000000000000 ) ) ;
#100 = COORDINATED_UNIVERSAL_TIME_OFFSET ( 5, 0, .BEHIND. ) ;
#101 = DIRECTION ( 'NONE',  ( 0.0000000000000000000, 0.0000000000000000000, -1.000000000000000000 ) ) ;
#102 = PERSON_AND_ORGANIZATION_ROLE ( 'classification_officer' ) ;
#103 = PERSON_AND_ORGANIZATION ( #122, #66 ) ;
#104 = PERSON_AND_ORGANIZATION_ROLE ( 'creator' ) ;
#105 = CC_DESIGN_PERSON_AND_ORGANIZATION_ASSIGNMENT ( #127, #104, ( #64 ) ) ;
#106 = LOCAL_TIME ( 14, 31, 33.00000000000000000, #100 ) ;
#107 = CYLINDRICAL_SURFACE ( 'NONE', #126, 6.349999999999999600 ) ;
#108 = CC_DESIGN_PERSON_AND_ORGANIZATION_ASSIGNMENT ( #43, #102, ( #77 ) ) ;
#109 = PERSON_AND_ORGANIZATION ( #122, #66 ) ;
#110 = APPROVAL ( #20, 'UNSPECIFIED' ) ;
#111 = FACE_OUTER_BOUND ( 'NONE', #10, .T. ) ;
#112 = AXIS2_PLACEMENT_3D ( 'NONE', #69, #99, #159 ) ;
#113 = PRODUCT_DEFINITION_FORMATION_WITH_SPECIFIED_SOURCE ( 'ANY', '', #172, .NOT_KNOWN. ) ;
#114 = APPLICATION_CONTEXT ( 'configuration controlled 3d designs of mechanical parts and assemblies' ) ;
#115 = DIRECTION ( 'NONE',  ( 0.0000000000000000000, 0.0000000000000000000, -1.000000000000000000 ) ) ;
#116 = CARTESIAN_POINT ( 'NONE',  ( 0.7500000000000000000, 0.0000000000000000000, 0.0000000000000000000 ) ) ;
#117 = VECTOR ( 'NONE', #57, 1000.000000000000000 ) ;
#118 = PLANE ( 'NONE',  #39 ) ;
#119 = DIRECTION ( 'NONE',  ( -1.000000000000000000, -0.0000000000000000000, -0.0000000000000000000 ) ) ;
#120 = PRODUCT_RELATED_PRODUCT_CATEGORY ( 'detail', '', ( #172 ) ) ;
#121 = DATE_AND_TIME ( #45, #106 ) ;
#122 = PERSON ( 'UNSPECIFIED', 'UNSPECIFIED', 'UNSPECIFIED', ('UNSPECIFIED'), ('UNSPECIFIED'), ('UNSPECIFIED') ) ;
#123 = ORIENTED_EDGE ( 'NONE', *, *, #157, .F. ) ;
#124 = ORIENTED_EDGE ( 'NONE', *, *, #1, .F. ) ;
#125 = CARTESIAN_POINT ( 'NONE',  ( -0.7500000000000000000, 0.0000000000000000000, 0.0000000000000000000 ) ) ;
#126 = AXIS2_PLACEMENT_3D ( 'NONE', #116, #130, #71 ) ;
#127 = PERSON_AND_ORGANIZATION ( #122, #66 ) ;
#128 = ORIENTED_EDGE ( 'NONE', *, *, #1, .T. ) ;
#129 = VERTEX_POINT ( 'NONE', #27 ) ;
#130 = DIRECTION ( 'NONE',  ( -1.000000000000000000, -0.0000000000000000000, -0.0000000000000000000 ) ) ;
#131 =( NAMED_UNIT ( * ) SI_UNIT ( $, .STERADIAN. ) SOLID_ANGLE_UNIT ( ) );
#132 = APPLICATION_PROTOCOL_DEFINITION ( 'international standard', 'config_control_design', 1994, #114 ) ;
#133 = PERSON_AND_ORGANIZATION ( #122, #66 ) ;
#134 = FACE_OUTER_BOUND ( 'NONE', #5, .T. ) ;
#135 = EDGE_CURVE ( 'NONE', #32, #36, #12, .T. ) ;
#136 = CALENDAR_DATE ( 2018, 15, 3 ) ;
#137 = ORIENTED_EDGE ( 'NONE', *, *, #141, .F. ) ;
#138 = ORIENTED_EDGE ( 'NONE', *, *, #135, .F. ) ;
#139 = CC_DESIGN_APPROVAL ( #110, ( #77 ) ) ;
#140 = DATE_AND_TIME ( #143, #3 ) ;
#141 = EDGE_CURVE ( 'NONE', #36, #93, #167, .T. ) ;
#142 = MECHANICAL_CONTEXT ( 'NONE', #114, 'mechanical' ) ;
#143 = CALENDAR_DATE ( 2018, 15, 3 ) ;
#144 = CLOSED_SHELL ( 'NONE', ( #41, #147, #86, #30 ) ) ;
#145 = DIRECTION ( 'NONE',  ( 1.000000000000000000, 0.0000000000000000000, 0.0000000000000000000 ) ) ;
#146 =( NAMED_UNIT ( * ) PLANE_ANGLE_UNIT ( ) SI_UNIT ( $, .RADIAN. ) );
#147 = ADVANCED_FACE ( 'NONE', ( #7 ), #78, .T. ) ;
#148 = EDGE_CURVE ( 'NONE', #93, #36, #24, .T. ) ;
#149 = APPROVAL_DATE_TIME ( #91, #38 ) ;
#150 = DIRECTION ( 'NONE',  ( 1.000000000000000000, 0.0000000000000000000, 0.0000000000000000000 ) ) ;
#151 = ORIENTED_EDGE ( 'NONE', *, *, #148, .T. ) ;
#152 = MANIFOLD_SOLID_BREP ( 'Boss-Extrude1', #144 ) ;
#153 = SECURITY_CLASSIFICATION_LEVEL ( 'unclassified' ) ;
#154 = LOCAL_TIME ( 14, 31, 33.00000000000000000, #72 ) ;
#155 = ADVANCED_BREP_SHAPE_REPRESENTATION ( 'Web Model 46457_47610', ( #152, #112 ), #53 ) ;
#156 = ORIENTED_EDGE ( 'NONE', *, *, #52, .T. ) ;
#157 = EDGE_CURVE ( 'NONE', #129, #32, #162, .T. ) ;
#158 = DESIGN_CONTEXT ( 'detailed design', #80, 'design' ) ;
#159 = DIRECTION ( 'NONE',  ( 1.000000000000000000, 0.0000000000000000000, 0.0000000000000000000 ) ) ;
#160 = CARTESIAN_POINT ( 'NONE',  ( 0.7500000000000000000, 0.0000000000000000000, 0.0000000000000000000 ) ) ;
#161 = CARTESIAN_POINT ( 'NONE',  ( -0.7500000000000000000, 0.0000000000000000000, 0.0000000000000000000 ) ) ;
#162 = CIRCLE ( 'NONE', #13, 6.349999999999999600 ) ;
#163 = CARTESIAN_POINT ( 'NONE',  ( -0.7500000000000000000, 0.0000000000000000000, 0.0000000000000000000 ) ) ;
#164 = APPROVAL ( #168, 'UNSPECIFIED' ) ;
#165 = DIRECTION ( 'NONE',  ( 0.0000000000000000000, 0.0000000000000000000, -1.000000000000000000 ) ) ;
#166 = DATE_TIME_ROLE ( 'creation_date' ) ;
#167 = CIRCLE ( 'NONE', #33, 6.349999999999999600 ) ;
#168 = APPROVAL_STATUS ( 'not_yet_approved' ) ;
#169 = DATE_TIME_ROLE ( 'classification_date' ) ;
#170 = PERSON_AND_ORGANIZATION_ROLE ( 'design_supplier' ) ;
#171 = AXIS2_PLACEMENT_3D ( 'NONE', #70, #145, #115 ) ;
#172 = PRODUCT ( 'Web Model 46457_47610', 'Web Model 46457_47610', '', ( #142 ) ) ;
#173 = ORIENTED_EDGE ( 'NONE', *, *, #157, .T. ) ;
#174 = APPROVAL_DATE_TIME ( #121, #164 ) ;
#175 = PERSON_AND_ORGANIZATION ( #122, #66 ) ;
ENDSEC;
END-ISO-10303-21;
