ISO-10303-21;
HEADER;
FILE_DESCRIPTION (( 'STEP AP214' ),
    '1' );
FILE_NAME ('5432-E0W.STEP',
    '2009-12-23T16:31:53',
    ( 'Admin' ),
    ( 'Thorlabs, Inc.' ),
    'SwSTEP 2.0',
    'SolidWorks 2009',
    '' );
FILE_SCHEMA (( 'AUTOMOTIVE_DESIGN' ));
ENDSEC;

DATA;
#1 = ORIENTED_EDGE ( 'NONE', *, *, #6, .T. ) ;
#2 = ORIENTED_EDGE ( 'NONE', *, *, #23, .T. ) ;
#3 = ORIENTED_EDGE ( 'NONE', *, *, #4, .F. ) ;
#4 = EDGE_CURVE ( 'NONE', #7, #39, #59, .T. ) ;
#5 = ORIENTED_EDGE ( 'NONE', *, *, #44, .T. ) ;
#6 = EDGE_CURVE ( 'NONE', #7, #21, #78, .T. ) ;
#7 = VERTEX_POINT ( 'NONE', #66 ) ;
#8 = ORIENTED_EDGE ( 'NONE', *, *, #4, .T. ) ;
#9 = ADVANCED_FACE ( 'NONE', ( #68 ), #80, .F. ) ;
#10 = ORIENTED_EDGE ( 'NONE', *, *, #12, .T. ) ;
#11 = ORIENTED_EDGE ( 'NONE', *, *, #20, .T. ) ;
#12 = EDGE_CURVE ( 'NONE', #39, #22, #95, .T. ) ;
#13 = EDGE_LOOP ( 'NONE', ( #14, #8, #10, #11 ) ) ;
#14 = ORIENTED_EDGE ( 'NONE', *, *, #6, .F. ) ;
#15 = EDGE_CURVE ( 'NONE', #29, #22, #96, .T. ) ;
#16 = ADVANCED_FACE ( 'NONE', ( #84 ), #192, .F. ) ;
#17 = EDGE_LOOP ( 'NONE', ( #3, #1, #2, #5 ) ) ;
#18 = ORIENTED_EDGE ( 'NONE', *, *, #15, .F. ) ;
#19 = ORIENTED_EDGE ( 'NONE', *, *, #20, .F. ) ;
#20 = EDGE_CURVE ( 'NONE', #22, #21, #148, .T. ) ;
#21 = VERTEX_POINT ( 'NONE', #195 ) ;
#22 = VERTEX_POINT ( 'NONE', #194 ) ;
#23 = EDGE_CURVE ( 'NONE', #21, #24, #126, .T. ) ;
#24 = VERTEX_POINT ( 'NONE', #188 ) ;
#25 = ORIENTED_EDGE ( 'NONE', *, *, #23, .F. ) ;
#26 = EDGE_LOOP ( 'NONE', ( #27, #49, #25, #19, #18 ) ) ;
#27 = ORIENTED_EDGE ( 'NONE', *, *, #28, .T. ) ;
#28 = EDGE_CURVE ( 'NONE', #29, #30, #146, .T. ) ;
#29 = VERTEX_POINT ( 'NONE', #181 ) ;
#30 = VERTEX_POINT ( 'NONE', #180 ) ;
#31 = ORIENTED_EDGE ( 'NONE', *, *, #44, .F. ) ;
#32 = ORIENTED_EDGE ( 'NONE', *, *, #48, .F. ) ;
#33 = ORIENTED_EDGE ( 'NONE', *, *, #38, .T. ) ;
#34 = ADVANCED_FACE ( 'NONE', ( #179 ), #128, .T. ) ;
#35 = ORIENTED_EDGE ( 'NONE', *, *, #12, .F. ) ;
#36 = ORIENTED_EDGE ( 'NONE', *, *, #15, .T. ) ;
#37 = CLOSED_SHELL ( 'NONE', ( #41, #16, #9, #47, #34 ) ) ;
#38 = EDGE_CURVE ( 'NONE', #30, #29, #173, .T. ) ;
#39 = VERTEX_POINT ( 'NONE', #169 ) ;
#40 = MANIFOLD_SOLID_BREP ( 'NONE', #37 ) ;
#41 = ADVANCED_FACE ( 'NONE', ( #159 ), #200, .T. ) ;
#42 = EDGE_LOOP ( 'NONE', ( #45, #46 ) ) ;
#43 = EDGE_LOOP ( 'NONE', ( #32, #33, #36, #35, #31 ) ) ;
#44 = EDGE_CURVE ( 'NONE', #24, #39, #255, .T. ) ;
#45 = ORIENTED_EDGE ( 'NONE', *, *, #28, .F. ) ;
#46 = ORIENTED_EDGE ( 'NONE', *, *, #38, .F. ) ;
#47 = ADVANCED_FACE ( 'NONE', ( #250 ), #232, .F. ) ;
#48 = EDGE_CURVE ( 'NONE', #30, #24, #227, .T. ) ;
#49 = ORIENTED_EDGE ( 'NONE', *, *, #48, .T. ) ;
#50 = FILL_AREA_STYLE ('',( #64 ) ) ;
#51 = STYLED_ITEM ( 'NONE', ( #52 ), #9 ) ;
#52 = PRESENTATION_STYLE_ASSIGNMENT (( #61 ) ) ;
#53 = CARTESIAN_POINT ( 'NONE',  ( 0.0000000000000000000, 0.0000000000000000000, 0.3149606299212598400 ) ) ;
#54 =( CONVERSION_BASED_UNIT ( 'INCH', #55 ) LENGTH_UNIT ( ) NAMED_UNIT ( #56 ) );
#55 = LENGTH_MEASURE_WITH_UNIT ( LENGTH_MEASURE( 0.02539999999999999900 ), #57 );
#56 = DIMENSIONAL_EXPONENTS ( 1.000000000000000000, 0.0000000000000000000, 0.0000000000000000000, 0.0000000000000000000, 0.0000000000000000000, 0.0000000000000000000, 0.0000000000000000000 ) ;
#57 =( LENGTH_UNIT ( ) NAMED_UNIT ( * ) SI_UNIT ( $, .METRE. ) );
#58 = CARTESIAN_POINT ( 'NONE',  ( 0.0000000000000000000, 0.0000000000000000000, 0.3149606299212598400 ) ) ;
#59 = CIRCLE ( 'NONE', #60, 0.2755905511811023700 ) ;
#60 = AXIS2_PLACEMENT_3D ( 'NONE', #53, #76, #69 ) ;
#61 = SURFACE_STYLE_USAGE ( .BOTH. , #62 ) ;
#62 = SURFACE_SIDE_STYLE ('',( #65 ) ) ;
#63 = DIRECTION ( 'NONE',  ( 0.0000000000000000000, 0.0000000000000000000, -1.000000000000000000 ) ) ;
#64 = FILL_AREA_STYLE_COLOUR ( '', #67 ) ;
#65 = SURFACE_STYLE_FILL_AREA ( #50 ) ;
#66 = CARTESIAN_POINT ( 'NONE',  ( 0.0000000000000000000, 1.687449700148945000E-017, 0.03937007874015748000 ) ) ;
#67 = COLOUR_RGB ( '',1.000000000000000000, 1.000000000000000000, 1.000000000000000000 ) ;
#68 = FACE_OUTER_BOUND ( 'NONE', #17, .T. ) ;
#69 = DIRECTION ( 'NONE',  ( -1.224606353822377300E-016, -1.000000000000000000, 0.0000000000000000000 ) ) ;
#70 = AXIS2_PLACEMENT_3D ( 'NONE', #58, #77, #63 ) ;
#71 = MECHANICAL_DESIGN_GEOMETRIC_PRESENTATION_REPRESENTATION (  '', ( #51 ), #79 ) ;
#72 = PRESENTATION_LAYER_ASSIGNMENT (  '', '', ( #51 ) ) ;
#73 = UNCERTAINTY_MEASURE_WITH_UNIT (LENGTH_MEASURE( 1.000000000000000100E-005 ), #54, 'distance_accuracy_value', 'NONE');
#74 =( NAMED_UNIT ( * ) SI_UNIT ( $, .STERADIAN. ) SOLID_ANGLE_UNIT ( ) );
#75 =( NAMED_UNIT ( * ) PLANE_ANGLE_UNIT ( ) SI_UNIT ( $, .RADIAN. ) );
#76 = DIRECTION ( 'NONE',  ( -1.000000000000000000, 1.224606353822377300E-016, 0.0000000000000000000 ) ) ;
#77 = DIRECTION ( 'NONE',  ( 1.000000000000000000, 0.0000000000000000000, 0.0000000000000000000 ) ) ;
#78 = CIRCLE ( 'NONE', #70, 0.2755905511811023700 ) ;
#79 =( GEOMETRIC_REPRESENTATION_CONTEXT ( 3 ) GLOBAL_UNCERTAINTY_ASSIGNED_CONTEXT ( ( #73 ) ) GLOBAL_UNIT_ASSIGNED_CONTEXT ( ( #54, #75, #74 ) ) REPRESENTATION_CONTEXT ( 'NONE', 'WORKASPACE' ) );
#80 = SPHERICAL_SURFACE ( 'NONE', #91, 0.2755905511811023700 ) ;
#81 = STYLED_ITEM ( 'NONE', ( #82 ), #16 ) ;
#82 = PRESENTATION_STYLE_ASSIGNMENT (( #83 ) ) ;
#83 = SURFACE_STYLE_USAGE ( .BOTH. , #85 ) ;
#84 = FACE_OUTER_BOUND ( 'NONE', #13, .T. ) ;
#85 = SURFACE_SIDE_STYLE ('',( #86 ) ) ;
#86 = SURFACE_STYLE_FILL_AREA ( #87 ) ;
#87 = FILL_AREA_STYLE ('',( #100 ) ) ;
#88 = COLOUR_RGB ( '',1.000000000000000000, 1.000000000000000000, 1.000000000000000000 ) ;
#89 = DIRECTION ( 'NONE',  ( -0.0000000000000000000, -0.0000000000000000000, 1.000000000000000000 ) ) ;
#90 = VECTOR ( 'NONE', #89, 39.37007874015748100 ) ;
#91 = AXIS2_PLACEMENT_3D ( 'NONE', #92, #102, #97 ) ;
#92 = CARTESIAN_POINT ( 'NONE',  ( 0.0000000000000000000, 0.0000000000000000000, 0.3149606299212598400 ) ) ;
#93 = DIRECTION ( 'NONE',  ( -0.0000000000000000000, -0.0000000000000000000, 1.000000000000000000 ) ) ;
#94 = AXIS2_PLACEMENT_3D ( 'NONE', #98, #93, #101 ) ;
#95 = CIRCLE ( 'NONE', #94, 0.1771653543307086800 ) ;
#96 = LINE ( 'NONE', #99, #90 ) ;
#97 = DIRECTION ( 'NONE',  ( 0.0000000000000000000, 1.000000000000000000, 0.0000000000000000000 ) ) ;
#98 = CARTESIAN_POINT ( 'NONE',  ( 0.0000000000000000000, 0.0000000000000000000, 0.1038621004967793900 ) ) ;
#99 = CARTESIAN_POINT ( 'NONE',  ( 0.1771653543307086800, 0.0000000000000000000, 0.3550060342688710600 ) ) ;
#100 = FILL_AREA_STYLE_COLOUR ( '', #88 ) ;
#101 = DIRECTION ( 'NONE',  ( 1.000000000000000000, 0.0000000000000000000, 0.0000000000000000000 ) ) ;
#102 = DIRECTION ( 'NONE',  ( -1.000000000000000000, 0.0000000000000000000, 0.0000000000000000000 ) ) ;
#103 =( NAMED_UNIT ( * ) PLANE_ANGLE_UNIT ( ) SI_UNIT ( $, .RADIAN. ) );
#104 = LENGTH_MEASURE_WITH_UNIT ( LENGTH_MEASURE( 0.02539999999999999900 ), #109 );
#105 = MECHANICAL_DESIGN_GEOMETRIC_PRESENTATION_REPRESENTATION (  '', ( #81 ), #108 ) ;
#106 = DIMENSIONAL_EXPONENTS ( 1.000000000000000000, 0.0000000000000000000, 0.0000000000000000000, 0.0000000000000000000, 0.0000000000000000000, 0.0000000000000000000, 0.0000000000000000000 ) ;
#107 = MECHANICAL_DESIGN_GEOMETRIC_PRESENTATION_REPRESENTATION (  '', ( #151 ), #201 ) ;
#108 =( GEOMETRIC_REPRESENTATION_CONTEXT ( 3 ) GLOBAL_UNCERTAINTY_ASSIGNED_CONTEXT ( ( #111 ) ) GLOBAL_UNIT_ASSIGNED_CONTEXT ( ( #113, #103, #110 ) ) REPRESENTATION_CONTEXT ( 'NONE', 'WORKASPACE' ) );
#109 =( LENGTH_UNIT ( ) NAMED_UNIT ( * ) SI_UNIT ( $, .METRE. ) );
#110 =( NAMED_UNIT ( * ) SI_UNIT ( $, .STERADIAN. ) SOLID_ANGLE_UNIT ( ) );
#111 = UNCERTAINTY_MEASURE_WITH_UNIT (LENGTH_MEASURE( 1.000000000000000100E-005 ), #113, 'distance_accuracy_value', 'NONE');
#112 = PRESENTATION_LAYER_ASSIGNMENT (  '', '', ( #81 ) ) ;
#113 =( CONVERSION_BASED_UNIT ( 'INCH', #104 ) LENGTH_UNIT ( ) NAMED_UNIT ( #106 ) );
#114 = CARTESIAN_POINT ( 'NONE',  ( 0.0000000000000000000, 0.0000000000000000000, 0.1038621004967793900 ) ) ;
#115 = PRESENTATION_LAYER_ASSIGNMENT (  '', '', ( #116 ) ) ;
#116 = STYLED_ITEM ( 'NONE', ( #117 ), #34 ) ;
#117 = PRESENTATION_STYLE_ASSIGNMENT (( #118 ) ) ;
#118 = SURFACE_STYLE_USAGE ( .BOTH. , #119 ) ;
#119 = SURFACE_SIDE_STYLE ('',( #120 ) ) ;
#120 = SURFACE_STYLE_FILL_AREA ( #121 ) ;
#121 = FILL_AREA_STYLE ('',( #177 ) ) ;
#122 = DIRECTION ( 'NONE',  ( 1.000000000000000000, 0.0000000000000000000, 0.0000000000000000000 ) ) ;
#123 = DIRECTION ( 'NONE',  ( -0.0000000000000000000, -0.0000000000000000000, 1.000000000000000000 ) ) ;
#124 = CARTESIAN_POINT ( 'NONE',  ( 0.0000000000000000000, 0.0000000000000000000, 0.1038621004967793900 ) ) ;
#125 = AXIS2_PLACEMENT_3D ( 'NONE', #124, #123, #122 ) ;
#126 = CIRCLE ( 'NONE', #125, 0.1771653543307086800 ) ;
#127 = UNCERTAINTY_MEASURE_WITH_UNIT (LENGTH_MEASURE( 1.000000000000000100E-005 ), #189, 'distance_accuracy_value', 'NONE');
#128 = CYLINDRICAL_SURFACE ( 'NONE', #134, 0.1771653543307086800 ) ;
#129 =( GEOMETRIC_REPRESENTATION_CONTEXT ( 3 ) GLOBAL_UNCERTAINTY_ASSIGNED_CONTEXT ( ( #127 ) ) GLOBAL_UNIT_ASSIGNED_CONTEXT ( ( #189, #176, #175 ) ) REPRESENTATION_CONTEXT ( 'NONE', 'WORKASPACE' ) );
#130 = CARTESIAN_POINT ( 'NONE',  ( 0.0000000000000000000, 0.0000000000000000000, -0.03937007874015751400 ) ) ;
#131 = DIRECTION ( 'NONE',  ( 1.000000000000000000, 0.0000000000000000000, 0.0000000000000000000 ) ) ;
#132 = DIRECTION ( 'NONE',  ( -0.0000000000000000000, -0.0000000000000000000, 1.000000000000000000 ) ) ;
#133 = CARTESIAN_POINT ( 'NONE',  ( 0.0000000000000000000, 0.0000000000000000000, 0.3550060342688710600 ) ) ;
#134 = AXIS2_PLACEMENT_3D ( 'NONE', #133, #132, #131 ) ;
#135 =( NAMED_UNIT ( * ) PLANE_ANGLE_UNIT ( ) SI_UNIT ( $, .RADIAN. ) );
#136 =( CONVERSION_BASED_UNIT ( 'INCH', #137 ) LENGTH_UNIT ( ) NAMED_UNIT ( #138 ) );
#137 = LENGTH_MEASURE_WITH_UNIT ( LENGTH_MEASURE( 0.02539999999999999900 ), #139 );
#138 = DIMENSIONAL_EXPONENTS ( 1.000000000000000000, 0.0000000000000000000, 0.0000000000000000000, 0.0000000000000000000, 0.0000000000000000000, 0.0000000000000000000, 0.0000000000000000000 ) ;
#139 =( LENGTH_UNIT ( ) NAMED_UNIT ( * ) SI_UNIT ( $, .METRE. ) );
#140 = MECHANICAL_DESIGN_GEOMETRIC_PRESENTATION_REPRESENTATION (  '', ( #142 ), #160 ) ;
#141 = PRESENTATION_LAYER_ASSIGNMENT (  '', '', ( #142 ) ) ;
#142 = STYLED_ITEM ( 'NONE', ( #163 ), #40 ) ;
#143 = DIRECTION ( 'NONE',  ( -0.0000000000000000000, -0.0000000000000000000, 1.000000000000000000 ) ) ;
#144 = CARTESIAN_POINT ( 'NONE',  ( 0.0000000000000000000, 0.0000000000000000000, -0.03937007874015751400 ) ) ;
#145 = AXIS2_PLACEMENT_3D ( 'NONE', #144, #143, #182 ) ;
#146 = CIRCLE ( 'NONE', #145, 0.1771653543307086800 ) ;
#147 = AXIS2_PLACEMENT_3D ( 'NONE', #187, #196, #193 ) ;
#148 = CIRCLE ( 'NONE', #149, 0.1771653543307086800 ) ;
#149 = AXIS2_PLACEMENT_3D ( 'NONE', #114, #186, #185 ) ;
#150 = PRESENTATION_LAYER_ASSIGNMENT (  '', '', ( #151 ) ) ;
#151 = STYLED_ITEM ( 'NONE', ( #152 ), #41 ) ;
#152 = PRESENTATION_STYLE_ASSIGNMENT (( #153 ) ) ;
#153 = SURFACE_STYLE_USAGE ( .BOTH. , #154 ) ;
#154 = SURFACE_SIDE_STYLE ('',( #155 ) ) ;
#155 = SURFACE_STYLE_FILL_AREA ( #156 ) ;
#156 = FILL_AREA_STYLE ('',( #157 ) ) ;
#157 = FILL_AREA_STYLE_COLOUR ( '', #158 ) ;
#158 = COLOUR_RGB ( '',1.000000000000000000, 1.000000000000000000, 1.000000000000000000 ) ;
#159 = FACE_OUTER_BOUND ( 'NONE', #26, .T. ) ;
#160 =( GEOMETRIC_REPRESENTATION_CONTEXT ( 3 ) GLOBAL_UNCERTAINTY_ASSIGNED_CONTEXT ( ( #161 ) ) GLOBAL_UNIT_ASSIGNED_CONTEXT ( ( #136, #135, #162 ) ) REPRESENTATION_CONTEXT ( 'NONE', 'WORKASPACE' ) );
#161 = UNCERTAINTY_MEASURE_WITH_UNIT (LENGTH_MEASURE( 1.000000000000000100E-005 ), #136, 'distance_accuracy_value', 'NONE');
#162 =( NAMED_UNIT ( * ) SI_UNIT ( $, .STERADIAN. ) SOLID_ANGLE_UNIT ( ) );
#163 = PRESENTATION_STYLE_ASSIGNMENT (( #164 ) ) ;
#164 = SURFACE_STYLE_USAGE ( .BOTH. , #165 ) ;
#165 = SURFACE_SIDE_STYLE ('',( #166 ) ) ;
#166 = SURFACE_STYLE_FILL_AREA ( #167 ) ;
#167 = FILL_AREA_STYLE ('',( #174 ) ) ;
#168 = COLOUR_RGB ( '',0.7529411764705882200, 0.7529411764705882200, 0.7529411764705882200 ) ;
#169 = CARTESIAN_POINT ( 'NONE',  ( -2.169578185905787100E-017, -0.1771653543307087100, 0.1038621004967794100 ) ) ;
#170 = DIRECTION ( 'NONE',  ( 1.000000000000000000, 0.0000000000000000000, 0.0000000000000000000 ) ) ;
#171 = DIRECTION ( 'NONE',  ( -0.0000000000000000000, -0.0000000000000000000, 1.000000000000000000 ) ) ;
#172 = AXIS2_PLACEMENT_3D ( 'NONE', #130, #171, #170 ) ;
#173 = CIRCLE ( 'NONE', #172, 0.1771653543307086800 ) ;
#174 = FILL_AREA_STYLE_COLOUR ( '', #168 ) ;
#175 =( NAMED_UNIT ( * ) SI_UNIT ( $, .STERADIAN. ) SOLID_ANGLE_UNIT ( ) );
#176 =( NAMED_UNIT ( * ) PLANE_ANGLE_UNIT ( ) SI_UNIT ( $, .RADIAN. ) );
#177 = FILL_AREA_STYLE_COLOUR ( '', #178 ) ;
#178 = COLOUR_RGB ( '',1.000000000000000000, 1.000000000000000000, 1.000000000000000000 ) ;
#179 = FACE_OUTER_BOUND ( 'NONE', #43, .T. ) ;
#180 = CARTESIAN_POINT ( 'NONE',  ( -0.1771653543307086800, 2.169578185905786800E-017, -0.03937007874015751400 ) ) ;
#181 = CARTESIAN_POINT ( 'NONE',  ( 0.1771653543307086800, 0.0000000000000000000, -0.03937007874015751400 ) ) ;
#182 = DIRECTION ( 'NONE',  ( 1.000000000000000000, 0.0000000000000000000, 0.0000000000000000000 ) ) ;
#183 =( LENGTH_UNIT ( ) NAMED_UNIT ( * ) SI_UNIT ( $, .METRE. ) );
#184 = MECHANICAL_DESIGN_GEOMETRIC_PRESENTATION_REPRESENTATION (  '', ( #116 ), #129 ) ;
#185 = DIRECTION ( 'NONE',  ( 1.000000000000000000, 0.0000000000000000000, 0.0000000000000000000 ) ) ;
#186 = DIRECTION ( 'NONE',  ( -0.0000000000000000000, -0.0000000000000000000, 1.000000000000000000 ) ) ;
#187 = CARTESIAN_POINT ( 'NONE',  ( 0.0000000000000000000, 0.0000000000000000000, 0.3149606299212598400 ) ) ;
#188 = CARTESIAN_POINT ( 'NONE',  ( -0.1771653543307086800, 2.169578185905786800E-017, 0.1038621004967793900 ) ) ;
#189 =( CONVERSION_BASED_UNIT ( 'INCH', #190 ) LENGTH_UNIT ( ) NAMED_UNIT ( #191 ) );
#190 = LENGTH_MEASURE_WITH_UNIT ( LENGTH_MEASURE( 0.02539999999999999900 ), #183 );
#191 = DIMENSIONAL_EXPONENTS ( 1.000000000000000000, 0.0000000000000000000, 0.0000000000000000000, 0.0000000000000000000, 0.0000000000000000000, 0.0000000000000000000, 0.0000000000000000000 ) ;
#192 = SPHERICAL_SURFACE ( 'NONE', #147, 0.2755905511811023700 ) ;
#193 = DIRECTION ( 'NONE',  ( 0.0000000000000000000, 1.000000000000000000, 0.0000000000000000000 ) ) ;
#194 = CARTESIAN_POINT ( 'NONE',  ( 0.1771653543307086800, 0.0000000000000000000, 0.1038621004967793900 ) ) ;
#195 = CARTESIAN_POINT ( 'NONE',  ( 0.0000000000000000000, 0.1771653543307087100, 0.1038621004967794100 ) ) ;
#196 = DIRECTION ( 'NONE',  ( -1.000000000000000000, 0.0000000000000000000, 0.0000000000000000000 ) ) ;
#197 =( LENGTH_UNIT ( ) NAMED_UNIT ( * ) SI_UNIT ( $, .METRE. ) );
#198 = DIRECTION ( 'NONE',  ( 1.000000000000000000, 0.0000000000000000000, 0.0000000000000000000 ) ) ;
#199 = DIRECTION ( 'NONE',  ( 0.0000000000000000000, 0.0000000000000000000, 1.000000000000000000 ) ) ;
#200 = CYLINDRICAL_SURFACE ( 'NONE', #260, 0.1771653543307086800 ) ;
#201 =( GEOMETRIC_REPRESENTATION_CONTEXT ( 3 ) GLOBAL_UNCERTAINTY_ASSIGNED_CONTEXT ( ( #261 ) ) GLOBAL_UNIT_ASSIGNED_CONTEXT ( ( #202, #263, #262 ) ) REPRESENTATION_CONTEXT ( 'NONE', 'WORKASPACE' ) );
#202 =( CONVERSION_BASED_UNIT ( 'INCH', #203 ) LENGTH_UNIT ( ) NAMED_UNIT ( #204 ) );
#203 = LENGTH_MEASURE_WITH_UNIT ( LENGTH_MEASURE( 0.02539999999999999900 ), #197 );
#204 = DIMENSIONAL_EXPONENTS ( 1.000000000000000000, 0.0000000000000000000, 0.0000000000000000000, 0.0000000000000000000, 0.0000000000000000000, 0.0000000000000000000, 0.0000000000000000000 ) ;
#205 = PRODUCT_DEFINITION_SHAPE ( 'NONE', 'NONE',  #208 ) ;
#206 = PRODUCT_RELATED_PRODUCT_CATEGORY ( 'part', '', ( #212 ) ) ;
#207 = PRODUCT_DEFINITION_FORMATION_WITH_SPECIFIED_SOURCE ( 'ANY', '', #212, .NOT_KNOWN. ) ;
#208 = PRODUCT_DEFINITION ( 'UNKNOWN', '', #207, #209 ) ;
#209 = PRODUCT_DEFINITION_CONTEXT ( 'detailed design', #211, 'design' ) ;
#210 = APPLICATION_PROTOCOL_DEFINITION ( 'draft international standard', 'automotive_design', 1998, #211 ) ;
#211 = APPLICATION_CONTEXT ( 'automotive_design' ) ;
#212 = PRODUCT ( '5432-E0W', '5432-E0W', '', ( #213 ) ) ;
#213 = PRODUCT_CONTEXT ( 'NONE', #283, 'mechanical' ) ;
#214 = APPLICATION_PROTOCOL_DEFINITION ( 'draft international standard', 'automotive_design', 1998, #283 ) ;
#215 = SHAPE_DEFINITION_REPRESENTATION ( #205, #284 ) ;
#216 = UNCERTAINTY_MEASURE_WITH_UNIT (LENGTH_MEASURE( 1.000000000000000100E-005 ), #219, 'distance_accuracy_value', 'NONE');
#217 =( NAMED_UNIT ( * ) SI_UNIT ( $, .STERADIAN. ) SOLID_ANGLE_UNIT ( ) );
#218 =( NAMED_UNIT ( * ) PLANE_ANGLE_UNIT ( ) SI_UNIT ( $, .RADIAN. ) );
#219 =( CONVERSION_BASED_UNIT ( 'INCH', #220 ) LENGTH_UNIT ( ) NAMED_UNIT ( #221 ) );
#220 = LENGTH_MEASURE_WITH_UNIT ( LENGTH_MEASURE( 0.02539999999999999900 ), #222 );
#221 = DIMENSIONAL_EXPONENTS ( 1.000000000000000000, 0.0000000000000000000, 0.0000000000000000000, 0.0000000000000000000, 0.0000000000000000000, 0.0000000000000000000, 0.0000000000000000000 ) ;
#222 =( LENGTH_UNIT ( ) NAMED_UNIT ( * ) SI_UNIT ( $, .METRE. ) );
#223 = CARTESIAN_POINT ( 'NONE',  ( 0.0000000000000000000, 0.0000000000000000000, 0.0000000000000000000 ) ) ;
#224 = DIRECTION ( 'NONE',  ( -0.0000000000000000000, -0.0000000000000000000, 1.000000000000000000 ) ) ;
#225 = VECTOR ( 'NONE', #224, 39.37007874015748100 ) ;
#226 = CARTESIAN_POINT ( 'NONE',  ( -0.1771653543307086800, 2.169578185905786800E-017, 0.3550060342688710600 ) ) ;
#227 = LINE ( 'NONE', #226, #225 ) ;
#228 = DIRECTION ( 'NONE',  ( 1.000000000000000000, 0.0000000000000000000, 0.0000000000000000000 ) ) ;
#229 = DIRECTION ( 'NONE',  ( 0.0000000000000000000, -0.0000000000000000000, 1.000000000000000000 ) ) ;
#230 = CARTESIAN_POINT ( 'NONE',  ( 0.0000000000000000000, 1.446433227339393800E-017, -0.03937007874015748000 ) ) ;
#231 = AXIS2_PLACEMENT_3D ( 'NONE', #230, #229, #228 ) ;
#232 = PLANE ( 'NONE',  #231 ) ;
#233 =( GEOMETRIC_REPRESENTATION_CONTEXT ( 3 ) GLOBAL_UNCERTAINTY_ASSIGNED_CONTEXT ( ( #234 ) ) GLOBAL_UNIT_ASSIGNED_CONTEXT ( ( #237, #236, #235 ) ) REPRESENTATION_CONTEXT ( 'NONE', 'WORKASPACE' ) );
#234 = UNCERTAINTY_MEASURE_WITH_UNIT (LENGTH_MEASURE( 1.000000000000000100E-005 ), #237, 'distance_accuracy_value', 'NONE');
#235 =( NAMED_UNIT ( * ) SI_UNIT ( $, .STERADIAN. ) SOLID_ANGLE_UNIT ( ) );
#236 =( NAMED_UNIT ( * ) PLANE_ANGLE_UNIT ( ) SI_UNIT ( $, .RADIAN. ) );
#237 =( CONVERSION_BASED_UNIT ( 'INCH', #238 ) LENGTH_UNIT ( ) NAMED_UNIT ( #239 ) );
#238 = LENGTH_MEASURE_WITH_UNIT ( LENGTH_MEASURE( 0.02539999999999999900 ), #240 );
#239 = DIMENSIONAL_EXPONENTS ( 1.000000000000000000, 0.0000000000000000000, 0.0000000000000000000, 0.0000000000000000000, 0.0000000000000000000, 0.0000000000000000000, 0.0000000000000000000 ) ;
#240 =( LENGTH_UNIT ( ) NAMED_UNIT ( * ) SI_UNIT ( $, .METRE. ) );
#241 = MECHANICAL_DESIGN_GEOMETRIC_PRESENTATION_REPRESENTATION (  '', ( #243 ), #233 ) ;
#242 = PRESENTATION_LAYER_ASSIGNMENT (  '', '', ( #243 ) ) ;
#243 = STYLED_ITEM ( 'NONE', ( #244 ), #47 ) ;
#244 = PRESENTATION_STYLE_ASSIGNMENT (( #245 ) ) ;
#245 = SURFACE_STYLE_USAGE ( .BOTH. , #246 ) ;
#246 = SURFACE_SIDE_STYLE ('',( #247 ) ) ;
#247 = SURFACE_STYLE_FILL_AREA ( #248 ) ;
#248 = FILL_AREA_STYLE ('',( #256 ) ) ;
#249 = COLOUR_RGB ( '',1.000000000000000000, 1.000000000000000000, 1.000000000000000000 ) ;
#250 = FACE_OUTER_BOUND ( 'NONE', #42, .T. ) ;
#251 = DIRECTION ( 'NONE',  ( 1.000000000000000000, 0.0000000000000000000, 0.0000000000000000000 ) ) ;
#252 = DIRECTION ( 'NONE',  ( -0.0000000000000000000, -0.0000000000000000000, 1.000000000000000000 ) ) ;
#253 = CARTESIAN_POINT ( 'NONE',  ( 0.0000000000000000000, 0.0000000000000000000, 0.1038621004967793900 ) ) ;
#254 = AXIS2_PLACEMENT_3D ( 'NONE', #253, #252, #251 ) ;
#255 = CIRCLE ( 'NONE', #254, 0.1771653543307086800 ) ;
#256 = FILL_AREA_STYLE_COLOUR ( '', #249 ) ;
#257 = DIRECTION ( 'NONE',  ( 1.000000000000000000, 0.0000000000000000000, 0.0000000000000000000 ) ) ;
#258 = DIRECTION ( 'NONE',  ( -0.0000000000000000000, -0.0000000000000000000, 1.000000000000000000 ) ) ;
#259 = CARTESIAN_POINT ( 'NONE',  ( 0.0000000000000000000, 0.0000000000000000000, 0.3550060342688710600 ) ) ;
#260 = AXIS2_PLACEMENT_3D ( 'NONE', #259, #258, #257 ) ;
#261 = UNCERTAINTY_MEASURE_WITH_UNIT (LENGTH_MEASURE( 1.000000000000000100E-005 ), #202, 'distance_accuracy_value', 'NONE');
#262 =( NAMED_UNIT ( * ) SI_UNIT ( $, .STERADIAN. ) SOLID_ANGLE_UNIT ( ) );
#263 =( NAMED_UNIT ( * ) PLANE_ANGLE_UNIT ( ) SI_UNIT ( $, .RADIAN. ) );
#264 = AXIS2_PLACEMENT_3D ( 'NONE', #223, #199, #198 ) ;
#265 =( GEOMETRIC_REPRESENTATION_CONTEXT ( 3 ) GLOBAL_UNCERTAINTY_ASSIGNED_CONTEXT ( ( #266 ) ) GLOBAL_UNIT_ASSIGNED_CONTEXT ( ( #269, #268, #267 ) ) REPRESENTATION_CONTEXT ( 'NONE', 'WORKASPACE' ) );
#266 = UNCERTAINTY_MEASURE_WITH_UNIT (LENGTH_MEASURE( 1.000000000000000100E-005 ), #269, 'distance_accuracy_value', 'NONE');
#267 =( NAMED_UNIT ( * ) SI_UNIT ( $, .STERADIAN. ) SOLID_ANGLE_UNIT ( ) );
#268 =( NAMED_UNIT ( * ) PLANE_ANGLE_UNIT ( ) SI_UNIT ( $, .RADIAN. ) );
#269 =( CONVERSION_BASED_UNIT ( 'INCH', #270 ) LENGTH_UNIT ( ) NAMED_UNIT ( #271 ) );
#270 = LENGTH_MEASURE_WITH_UNIT ( LENGTH_MEASURE( 0.02539999999999999900 ), #272 );
#271 = DIMENSIONAL_EXPONENTS ( 1.000000000000000000, 0.0000000000000000000, 0.0000000000000000000, 0.0000000000000000000, 0.0000000000000000000, 0.0000000000000000000, 0.0000000000000000000 ) ;
#272 =( LENGTH_UNIT ( ) NAMED_UNIT ( * ) SI_UNIT ( $, .METRE. ) );
#273 = MECHANICAL_DESIGN_GEOMETRIC_PRESENTATION_REPRESENTATION (  '', ( #275 ), #265 ) ;
#274 = PRESENTATION_LAYER_ASSIGNMENT (  '', '', ( #275 ) ) ;
#275 = STYLED_ITEM ( 'NONE', ( #276 ), #284 ) ;
#276 = PRESENTATION_STYLE_ASSIGNMENT (( #277 ) ) ;
#277 = SURFACE_STYLE_USAGE ( .BOTH. , #278 ) ;
#278 = SURFACE_SIDE_STYLE ('',( #279 ) ) ;
#279 = SURFACE_STYLE_FILL_AREA ( #280 ) ;
#280 = FILL_AREA_STYLE ('',( #281 ) ) ;
#281 = FILL_AREA_STYLE_COLOUR ( '', #282 ) ;
#282 = COLOUR_RGB ( '',0.7529411764705882200, 0.7529411764705882200, 0.7529411764705882200 ) ;
#283 = APPLICATION_CONTEXT ( 'automotive_design' ) ;
#284 = ADVANCED_BREP_SHAPE_REPRESENTATION ( '5432-E0W', ( #40, #264 ), #285 ) ;
#285 =( GEOMETRIC_REPRESENTATION_CONTEXT ( 3 ) GLOBAL_UNCERTAINTY_ASSIGNED_CONTEXT ( ( #216 ) ) GLOBAL_UNIT_ASSIGNED_CONTEXT ( ( #219, #218, #217 ) ) REPRESENTATION_CONTEXT ( 'NONE', 'WORKASPACE' ) );
ENDSEC;
END-ISO-10303-21;
