ISO-10303-21;
HEADER;
FILE_DESCRIPTION (( 'STEP AP203' ),
    '1' );
FILE_NAME ('Web Model 11911_11911.step',
    '2019-04-22T15:00:07',
    ( '' ),
    ( '' ),
    'SwSTEP 2.0',
    'SolidWorks 2018',
    '' );
FILE_SCHEMA (( 'CONFIG_CONTROL_DESIGN' ));
ENDSEC;

DATA;
#1 = CARTESIAN_POINT ( 'NONE',  ( 0.0000000000000000000, 0.0000000000000000000, -1.500000000000000000 ) ) ;
#2 = DIRECTION ( 'NONE',  ( 0.0000000000000000000, 0.0000000000000000000, 1.000000000000000000 ) ) ;
#3 = CIRCLE ( 'NONE', #104, 37.49999999999999289 ) ;
#4 = APPLICATION_PROTOCOL_DEFINITION ( 'international standard', 'config_control_design', 1994, #21 ) ;
#5 = CYLINDRICAL_SURFACE ( 'NONE', #32, 37.49999999999999289 ) ;
#6 = APPROVAL_STATUS ( 'not_yet_approved' ) ;
#7 = CC_DESIGN_SECURITY_CLASSIFICATION ( #137, ( #50 ) ) ;
#8 = AXIS2_PLACEMENT_3D ( 'NONE', #12, #10, #164 ) ;
#9 = ORIENTED_EDGE ( 'NONE', *, *, #106, .F. ) ;
#10 = DIRECTION ( 'NONE',  ( 0.0000000000000000000, 0.0000000000000000000, 1.000000000000000000 ) ) ;
#11 = VERTEX_POINT ( 'NONE', #52 ) ;
#12 = CARTESIAN_POINT ( 'NONE',  ( 0.0000000000000000000, 0.0000000000000000000, 1.500000000000000000 ) ) ;
#13 = DIRECTION ( 'NONE',  ( 1.000000000000000000, 0.0000000000000000000, 0.0000000000000000000 ) ) ;
#14 = DATE_AND_TIME ( #38, #53 ) ;
#15 = DIRECTION ( 'NONE',  ( 0.0000000000000000000, 0.0000000000000000000, 1.000000000000000000 ) ) ;
#16 = EDGE_LOOP ( 'NONE', ( #18, #102 ) ) ;
#17 = CARTESIAN_POINT ( 'NONE',  ( 0.0000000000000000000, 0.0000000000000000000, -1.500000000000000000 ) ) ;
#18 = ORIENTED_EDGE ( 'NONE', *, *, #54, .T. ) ;
#19 = CC_DESIGN_PERSON_AND_ORGANIZATION_ASSIGNMENT ( #116, #76, ( #118 ) ) ;
#20 = ADVANCED_FACE ( 'NONE', ( #136 ), #96, .T. ) ;
#21 = APPLICATION_CONTEXT ( 'configuration controlled 3d designs of mechanical parts and assemblies' ) ;
#22 = APPROVAL_DATE_TIME ( #89, #129 ) ;
#23 = EDGE_CURVE ( 'NONE', #11, #119, #128, .T. ) ;
#24 = ADVANCED_FACE ( 'NONE', ( #83 ), #5, .T. ) ;
#25 = CC_DESIGN_PERSON_AND_ORGANIZATION_ASSIGNMENT ( #103, #36, ( #50 ) ) ;
#26 = CC_DESIGN_APPROVAL ( #42, ( #137 ) ) ;
#27 = ORIENTED_EDGE ( 'NONE', *, *, #54, .F. ) ;
#28 = EDGE_CURVE ( 'NONE', #11, #130, #78, .T. ) ;
#29 = CARTESIAN_POINT ( 'NONE',  ( 0.0000000000000000000, 0.0000000000000000000, 1.500000000000000000 ) ) ;
#30 = PERSON_AND_ORGANIZATION ( #68, #65 ) ;
#31 = DIRECTION ( 'NONE',  ( 0.0000000000000000000, 0.0000000000000000000, 1.000000000000000000 ) ) ;
#32 = AXIS2_PLACEMENT_3D ( 'NONE', #71, #100, #40 ) ;
#33 = CARTESIAN_POINT ( 'NONE',  ( -37.49999999999999289, 0.0000000000000000000, 1.500000000000000000 ) ) ;
#34 = DIRECTION ( 'NONE',  ( 1.000000000000000000, 0.0000000000000000000, -0.0000000000000000000 ) ) ;
#35 = APPROVAL_PERSON_ORGANIZATION ( #70, #42, #92 ) ;
#36 = PERSON_AND_ORGANIZATION_ROLE ( 'creator' ) ;
#37 = SECURITY_CLASSIFICATION_LEVEL ( 'unclassified' ) ;
#38 = CALENDAR_DATE ( 2019, 22, 4 ) ;
#39 = EDGE_LOOP ( 'NONE', ( #159, #27, #122, #108 ) ) ;
#40 = DIRECTION ( 'NONE',  ( -1.000000000000000000, 0.0000000000000000000, 0.0000000000000000000 ) ) ;
#41 = CIRCLE ( 'NONE', #63, 37.49999999999999289 ) ;
#42 = APPROVAL ( #6, 'UNSPECIFIED' ) ;
#43 =( LENGTH_UNIT ( ) NAMED_UNIT ( * ) SI_UNIT ( .MILLI., .METRE. ) );
#44 = ORIENTED_EDGE ( 'NONE', *, *, #135, .T. ) ;
#45 = MANIFOLD_SOLID_BREP ( '36935-1-solid1', #117 ) ;
#46 = APPROVAL_ROLE ( '' ) ;
#47 = CALENDAR_DATE ( 2019, 22, 4 ) ;
#48 = VECTOR ( 'NONE', #134, 1000.000000000000000 ) ;
#49 = PERSON_AND_ORGANIZATION_ROLE ( 'classification_officer' ) ;
#50 = PRODUCT_DEFINITION_FORMATION_WITH_SPECIFIED_SOURCE ( 'ANY', '', #173, .NOT_KNOWN. ) ;
#51 = VERTEX_POINT ( 'NONE', #127 ) ;
#52 = CARTESIAN_POINT ( 'NONE',  ( 37.49999999999999289, 4.592425496802573578E-15, 1.500000000000000000 ) ) ;
#53 = LOCAL_TIME ( 11, 0, 7.000000000000000000, #158 ) ;
#54 = EDGE_CURVE ( 'NONE', #119, #11, #3, .T. ) ;
#55 = APPLICATION_CONTEXT ( 'configuration controlled 3d designs of mechanical parts and assemblies' ) ;
#56 = CALENDAR_DATE ( 2019, 22, 4 ) ;
#57 = DIRECTION ( 'NONE',  ( -0.0000000000000000000, -0.0000000000000000000, -1.000000000000000000 ) ) ;
#58 = CYLINDRICAL_SURFACE ( 'NONE', #160, 37.49999999999999289 ) ;
#59 = CC_DESIGN_APPROVAL ( #129, ( #118 ) ) ;
#60 = DIRECTION ( 'NONE',  ( 0.0000000000000000000, 0.0000000000000000000, 1.000000000000000000 ) ) ;
#61 = PERSON_AND_ORGANIZATION ( #68, #65 ) ;
#62 = MECHANICAL_CONTEXT ( 'NONE', #55, 'mechanical' ) ;
#63 = AXIS2_PLACEMENT_3D ( 'NONE', #1, #167, #101 ) ;
#64 = PERSON_AND_ORGANIZATION_ROLE ( 'design_owner' ) ;
#65 = ORGANIZATION ( 'UNSPECIFIED', 'UNSPECIFIED', '' ) ;
#66 = COORDINATED_UNIVERSAL_TIME_OFFSET ( 5, 0, .BEHIND. ) ;
#67 = SHAPE_DEFINITION_REPRESENTATION ( #145, #87 ) ;
#68 = PERSON ( 'UNSPECIFIED', 'UNSPECIFIED', 'UNSPECIFIED', ('UNSPECIFIED'), ('UNSPECIFIED'), ('UNSPECIFIED') ) ;
#69 = APPROVAL ( #142, 'UNSPECIFIED' ) ;
#70 = PERSON_AND_ORGANIZATION ( #68, #65 ) ;
#71 = CARTESIAN_POINT ( 'NONE',  ( 0.0000000000000000000, 0.0000000000000000000, 1.500000000000000000 ) ) ;
#72 = DIRECTION ( 'NONE',  ( 1.000000000000000000, 0.0000000000000000000, 0.0000000000000000000 ) ) ;
#73 = ORIENTED_EDGE ( 'NONE', *, *, #23, .F. ) ;
#74 = PERSON_AND_ORGANIZATION ( #68, #65 ) ;
#75 = UNCERTAINTY_MEASURE_WITH_UNIT (LENGTH_MEASURE( 1.000000000000000082E-05 ), #43, 'distance_accuracy_value', 'NONE');
#76 = PERSON_AND_ORGANIZATION_ROLE ( 'creator' ) ;
#77 = DATE_TIME_ROLE ( 'creation_date' ) ;
#78 = LINE ( 'NONE', #148, #161 ) ;
#79 = LINE ( 'NONE', #33, #48 ) ;
#80 = DIRECTION ( 'NONE',  ( 1.000000000000000000, 0.0000000000000000000, 0.0000000000000000000 ) ) ;
#81 = LOCAL_TIME ( 11, 0, 7.000000000000000000, #147 ) ;
#82 = AXIS2_PLACEMENT_3D ( 'NONE', #29, #31, #80 ) ;
#83 = FACE_OUTER_BOUND ( 'NONE', #86, .T. ) ;
#84 =( NAMED_UNIT ( * ) PLANE_ANGLE_UNIT ( ) SI_UNIT ( $, .RADIAN. ) );
#85 = CARTESIAN_POINT ( 'NONE',  ( 37.49999999999999289, 4.592425496802573578E-15, -1.500000000000000000 ) ) ;
#86 = EDGE_LOOP ( 'NONE', ( #73, #169, #44, #9 ) ) ;
#87 = ADVANCED_BREP_SHAPE_REPRESENTATION ( 'Web Model 11911_11911', ( #45, #144 ), #113 ) ;
#88 = DIRECTION ( 'NONE',  ( 1.000000000000000000, 0.0000000000000000000, 0.0000000000000000000 ) ) ;
#89 = DATE_AND_TIME ( #56, #132 ) ;
#90 = ORIENTED_EDGE ( 'NONE', *, *, #93, .F. ) ;
#91 = ADVANCED_FACE ( 'NONE', ( #163 ), #58, .T. ) ;
#92 = APPROVAL_ROLE ( '' ) ;
#93 = EDGE_CURVE ( 'NONE', #51, #130, #141, .T. ) ;
#94 = COORDINATED_UNIVERSAL_TIME_OFFSET ( 5, 0, .BEHIND. ) ;
#95 = PERSON_AND_ORGANIZATION ( #68, #65 ) ;
#96 = PLANE ( 'NONE',  #8 ) ;
#97 = CC_DESIGN_PERSON_AND_ORGANIZATION_ASSIGNMENT ( #30, #156, ( #50 ) ) ;
#98 = CALENDAR_DATE ( 2019, 22, 4 ) ;
#99 = CARTESIAN_POINT ( 'NONE',  ( 0.0000000000000000000, 0.0000000000000000000, 1.500000000000000000 ) ) ;
#100 = DIRECTION ( 'NONE',  ( -0.0000000000000000000, -0.0000000000000000000, -1.000000000000000000 ) ) ;
#101 = DIRECTION ( 'NONE',  ( 1.000000000000000000, 0.0000000000000000000, 0.0000000000000000000 ) ) ;
#102 = ORIENTED_EDGE ( 'NONE', *, *, #23, .T. ) ;
#103 = PERSON_AND_ORGANIZATION ( #68, #65 ) ;
#104 = AXIS2_PLACEMENT_3D ( 'NONE', #151, #60, #13 ) ;
#105 = APPROVAL_ROLE ( '' ) ;
#106 = EDGE_CURVE ( 'NONE', #119, #51, #79, .T. ) ;
#107 = LOCAL_TIME ( 11, 0, 7.000000000000000000, #138 ) ;
#108 = ORIENTED_EDGE ( 'NONE', *, *, #93, .T. ) ;
#109 = APPROVAL_DATE_TIME ( #143, #69 ) ;
#110 = CARTESIAN_POINT ( 'NONE',  ( -37.49999999999999289, 0.0000000000000000000, 1.500000000000000000 ) ) ;
#111 = AXIS2_PLACEMENT_3D ( 'NONE', #112, #15, #72 ) ;
#112 = CARTESIAN_POINT ( 'NONE',  ( 0.0000000000000000000, 0.0000000000000000000, -1.500000000000000000 ) ) ;
#113 =( GEOMETRIC_REPRESENTATION_CONTEXT ( 3 ) GLOBAL_UNCERTAINTY_ASSIGNED_CONTEXT ( ( #75 ) ) GLOBAL_UNIT_ASSIGNED_CONTEXT ( ( #43, #84, #120 ) ) REPRESENTATION_CONTEXT ( 'NONE', 'WORKASPACE' ) );
#114 = APPROVAL_STATUS ( 'not_yet_approved' ) ;
#115 = EDGE_LOOP ( 'NONE', ( #90, #153 ) ) ;
#116 = PERSON_AND_ORGANIZATION ( #68, #65 ) ;
#117 = CLOSED_SHELL ( 'NONE', ( #24, #91, #20, #140 ) ) ;
#118 = PRODUCT_DEFINITION ( 'UNKNOWN', '', #50, #126 ) ;
#119 = VERTEX_POINT ( 'NONE', #110 ) ;
#120 =( NAMED_UNIT ( * ) SI_UNIT ( $, .STERADIAN. ) SOLID_ANGLE_UNIT ( ) );
#121 = DIRECTION ( 'NONE',  ( -0.0000000000000000000, -0.0000000000000000000, -1.000000000000000000 ) ) ;
#122 = ORIENTED_EDGE ( 'NONE', *, *, #106, .T. ) ;
#123 = PLANE ( 'NONE',  #131 ) ;
#124 = APPROVAL_DATE_TIME ( #139, #42 ) ;
#125 = DIRECTION ( 'NONE',  ( -1.000000000000000000, 0.0000000000000000000, 0.0000000000000000000 ) ) ;
#126 = DESIGN_CONTEXT ( 'detailed design', #21, 'design' ) ;
#127 = CARTESIAN_POINT ( 'NONE',  ( -37.49999999999999289, 0.0000000000000000000, -1.500000000000000000 ) ) ;
#128 = CIRCLE ( 'NONE', #82, 37.49999999999999289 ) ;
#129 = APPROVAL ( #114, 'UNSPECIFIED' ) ;
#130 = VERTEX_POINT ( 'NONE', #85 ) ;
#131 = AXIS2_PLACEMENT_3D ( 'NONE', #17, #165, #34 ) ;
#132 = LOCAL_TIME ( 11, 0, 7.000000000000000000, #94 ) ;
#133 = DATE_AND_TIME ( #98, #107 ) ;
#134 = DIRECTION ( 'NONE',  ( -0.0000000000000000000, -0.0000000000000000000, -1.000000000000000000 ) ) ;
#135 = EDGE_CURVE ( 'NONE', #130, #51, #41, .T. ) ;
#136 = FACE_OUTER_BOUND ( 'NONE', #16, .T. ) ;
#137 = SECURITY_CLASSIFICATION ( '', '', #37 ) ;
#138 = COORDINATED_UNIVERSAL_TIME_OFFSET ( 5, 0, .BEHIND. ) ;
#139 = DATE_AND_TIME ( #168, #171 ) ;
#140 = ADVANCED_FACE ( 'NONE', ( #149 ), #123, .F. ) ;
#141 = CIRCLE ( 'NONE', #111, 37.49999999999999289 ) ;
#142 = APPROVAL_STATUS ( 'not_yet_approved' ) ;
#143 = DATE_AND_TIME ( #47, #81 ) ;
#144 = AXIS2_PLACEMENT_3D ( 'NONE', #150, #2, #88 ) ;
#145 = PRODUCT_DEFINITION_SHAPE ( 'NONE', 'NONE',  #118 ) ;
#146 = CC_DESIGN_PERSON_AND_ORGANIZATION_ASSIGNMENT ( #74, #49, ( #137 ) ) ;
#147 = COORDINATED_UNIVERSAL_TIME_OFFSET ( 5, 0, .BEHIND. ) ;
#148 = CARTESIAN_POINT ( 'NONE',  ( 37.49999999999999289, 4.592425496802573578E-15, 1.500000000000000000 ) ) ;
#149 = FACE_OUTER_BOUND ( 'NONE', #115, .T. ) ;
#150 = CARTESIAN_POINT ( 'NONE',  ( 0.0000000000000000000, 0.0000000000000000000, 0.0000000000000000000 ) ) ;
#151 = CARTESIAN_POINT ( 'NONE',  ( 0.0000000000000000000, 0.0000000000000000000, 1.500000000000000000 ) ) ;
#152 = APPLICATION_PROTOCOL_DEFINITION ( 'international standard', 'config_control_design', 1994, #55 ) ;
#153 = ORIENTED_EDGE ( 'NONE', *, *, #135, .F. ) ;
#154 = PERSON_AND_ORGANIZATION ( #68, #65 ) ;
#155 = CC_DESIGN_DATE_AND_TIME_ASSIGNMENT ( #14, #77, ( #118 ) ) ;
#156 = PERSON_AND_ORGANIZATION_ROLE ( 'design_supplier' ) ;
#157 = CC_DESIGN_DATE_AND_TIME_ASSIGNMENT ( #133, #170, ( #137 ) ) ;
#158 = COORDINATED_UNIVERSAL_TIME_OFFSET ( 5, 0, .BEHIND. ) ;
#159 = ORIENTED_EDGE ( 'NONE', *, *, #28, .F. ) ;
#160 = AXIS2_PLACEMENT_3D ( 'NONE', #99, #57, #125 ) ;
#161 = VECTOR ( 'NONE', #121, 1000.000000000000000 ) ;
#162 = APPROVAL_PERSON_ORGANIZATION ( #61, #129, #46 ) ;
#163 = FACE_OUTER_BOUND ( 'NONE', #39, .T. ) ;
#164 = DIRECTION ( 'NONE',  ( 1.000000000000000000, 0.0000000000000000000, -0.0000000000000000000 ) ) ;
#165 = DIRECTION ( 'NONE',  ( 0.0000000000000000000, 0.0000000000000000000, 1.000000000000000000 ) ) ;
#166 = CC_DESIGN_APPROVAL ( #69, ( #50 ) ) ;
#167 = DIRECTION ( 'NONE',  ( 0.0000000000000000000, 0.0000000000000000000, 1.000000000000000000 ) ) ;
#168 = CALENDAR_DATE ( 2019, 22, 4 ) ;
#169 = ORIENTED_EDGE ( 'NONE', *, *, #28, .T. ) ;
#170 = DATE_TIME_ROLE ( 'classification_date' ) ;
#171 = LOCAL_TIME ( 11, 0, 7.000000000000000000, #66 ) ;
#172 = PRODUCT_RELATED_PRODUCT_CATEGORY ( 'detail', '', ( #173 ) ) ;
#173 = PRODUCT ( 'Web Model 11911_11911', 'Web Model 11911_11911', '', ( #62 ) ) ;
#174 = CC_DESIGN_PERSON_AND_ORGANIZATION_ASSIGNMENT ( #95, #64, ( #173 ) ) ;
#175 = APPROVAL_PERSON_ORGANIZATION ( #154, #69, #105 ) ;
ENDSEC;
END-ISO-10303-21;
