ISO-10303-21;
HEADER;
FILE_DESCRIPTION (( 'STEP AP203' ),
    '1' );
FILE_NAME ('Web Model 55257MX_15759.step',
    '2020-10-19T17:08:37',
    ( '' ),
    ( '' ),
    'SwSTEP 2.0',
    'SolidWorks 2018',
    '' );
FILE_SCHEMA (( 'CONFIG_CONTROL_DESIGN' ));
ENDSEC;

DATA;
#1 = DIRECTION ( 'NONE',  ( -0.0000000000000000000, -0.0000000000000000000, -1.000000000000000000 ) ) ;
#2 = EDGE_CURVE ( 'NONE', #194, #203, #35, .T. ) ;
#3 = EDGE_LOOP ( 'NONE', ( #15, #169, #46, #140 ) ) ;
#4 = CARTESIAN_POINT ( 'NONE',  ( -15.00000000000000000, -15.00000000000000355, -3.000000000000000000 ) ) ;
#5 = VECTOR ( 'NONE', #151, 1000.000000000000000 ) ;
#6 = VECTOR ( 'NONE', #186, 1000.000000000000000 ) ;
#7 = CARTESIAN_POINT ( 'NONE',  ( -15.00000000000000000, 14.99999999999999822, 3.000000000000000000 ) ) ;
#8 = CARTESIAN_POINT ( 'NONE',  ( -15.00000000000000000, -15.00000000000000355, -3.000000000000000000 ) ) ;
#9 = ORIENTED_EDGE ( 'NONE', *, *, #38, .T. ) ;
#10 = DIRECTION ( 'NONE',  ( 1.000000000000000000, 0.0000000000000000000, 0.0000000000000000000 ) ) ;
#11 = VERTEX_POINT ( 'NONE', #7 ) ;
#12 = COORDINATED_UNIVERSAL_TIME_OFFSET ( 5, 0, .BEHIND. ) ;
#13 = CALENDAR_DATE ( 2020, 19, 10 ) ;
#14 = APPROVAL_DATE_TIME ( #50, #87 ) ;
#15 = ORIENTED_EDGE ( 'NONE', *, *, #2, .F. ) ;
#16 = EDGE_CURVE ( 'NONE', #54, #204, #158, .T. ) ;
#17 = CALENDAR_DATE ( 2020, 19, 10 ) ;
#18 = VECTOR ( 'NONE', #121, 1000.000000000000000 ) ;
#19 = CARTESIAN_POINT ( 'NONE',  ( 15.00000000000000355, 15.00000000000000178, 3.000000000000000000 ) ) ;
#20 = DIRECTION ( 'NONE',  ( -1.156482317317871478E-16, 1.000000000000000000, 0.0000000000000000000 ) ) ;
#21 = UNCERTAINTY_MEASURE_WITH_UNIT (LENGTH_MEASURE( 1.000000000000000082E-05 ), #44, 'distance_accuracy_value', 'NONE');
#22 = CARTESIAN_POINT ( 'NONE',  ( -15.00000000000000000, -15.00000000000000355, 3.000000000000000000 ) ) ;
#23 = LOCAL_TIME ( 13, 8, 37.00000000000000000, #138 ) ;
#24 = CARTESIAN_POINT ( 'NONE',  ( 15.00000000000000355, -15.00000000000000000, 3.000000000000000000 ) ) ;
#25 = CC_DESIGN_PERSON_AND_ORGANIZATION_ASSIGNMENT ( #150, #30, ( #176 ) ) ;
#26 = CARTESIAN_POINT ( 'NONE',  ( 15.00000000000000355, -15.00000000000000000, -3.000000000000000000 ) ) ;
#27 = PERSON_AND_ORGANIZATION_ROLE ( 'design_owner' ) ;
#28 = APPLICATION_PROTOCOL_DEFINITION ( 'international standard', 'config_control_design', 1994, #132 ) ;
#29 = PERSON_AND_ORGANIZATION ( #142, #177 ) ;
#30 = PERSON_AND_ORGANIZATION_ROLE ( 'design_supplier' ) ;
#31 = CC_DESIGN_SECURITY_CLASSIFICATION ( #131, ( #176 ) ) ;
#32 = PRODUCT ( 'Web Model 55257MX_15759', 'Web Model 55257MX_15759', '', ( #129 ) ) ;
#33 = EDGE_CURVE ( 'NONE', #203, #195, #40, .T. ) ;
#34 = CC_DESIGN_APPROVAL ( #87, ( #131 ) ) ;
#35 = LINE ( 'NONE', #4, #141 ) ;
#36 = DIRECTION ( 'NONE',  ( -0.0000000000000000000, -1.000000000000000000, -0.0000000000000000000 ) ) ;
#37 = CARTESIAN_POINT ( 'NONE',  ( 15.00000000000000355, -15.00000000000000000, 3.000000000000000000 ) ) ;
#38 = EDGE_CURVE ( 'NONE', #11, #194, #69, .T. ) ;
#39 = PLANE ( 'NONE',  #134 ) ;
#40 = LINE ( 'NONE', #182, #89 ) ;
#41 = CARTESIAN_POINT ( 'NONE',  ( 15.00000000000000355, -15.00000000000000000, 3.000000000000000000 ) ) ;
#42 = EDGE_CURVE ( 'NONE', #122, #203, #137, .T. ) ;
#43 = DIRECTION ( 'NONE',  ( 0.0000000000000000000, 0.0000000000000000000, 1.000000000000000000 ) ) ;
#44 =( LENGTH_UNIT ( ) NAMED_UNIT ( * ) SI_UNIT ( .MILLI., .METRE. ) );
#45 = CARTESIAN_POINT ( 'NONE',  ( 15.00000000000000355, -15.00000000000000000, 3.000000000000000000 ) ) ;
#46 = ORIENTED_EDGE ( 'NONE', *, *, #79, .F. ) ;
#47 = PERSON_AND_ORGANIZATION_ROLE ( 'classification_officer' ) ;
#48 = DIRECTION ( 'NONE',  ( 0.0000000000000000000, 0.0000000000000000000, 1.000000000000000000 ) ) ;
#49 = VECTOR ( 'NONE', #207, 1000.000000000000000 ) ;
#50 = DATE_AND_TIME ( #187, #23 ) ;
#51 = APPROVAL_PERSON_ORGANIZATION ( #29, #87, #216 ) ;
#52 = CC_DESIGN_PERSON_AND_ORGANIZATION_ASSIGNMENT ( #67, #230, ( #176 ) ) ;
#53 = APPROVAL_DATE_TIME ( #206, #201 ) ;
#54 = VERTEX_POINT ( 'NONE', #163 ) ;
#55 = VECTOR ( 'NONE', #164, 1000.000000000000000 ) ;
#56 = SHAPE_DEFINITION_REPRESENTATION ( #71, #115 ) ;
#57 = ORIENTED_EDGE ( 'NONE', *, *, #111, .F. ) ;
#58 = ORIENTED_EDGE ( 'NONE', *, *, #79, .T. ) ;
#59 = PLANE ( 'NONE',  #160 ) ;
#60 = APPROVAL_PERSON_ORGANIZATION ( #76, #201, #196 ) ;
#61 = DIRECTION ( 'NONE',  ( -1.000000000000000000, 0.0000000000000000000, 0.0000000000000000000 ) ) ;
#62 =( NAMED_UNIT ( * ) SI_UNIT ( $, .STERADIAN. ) SOLID_ANGLE_UNIT ( ) );
#63 = APPLICATION_PROTOCOL_DEFINITION ( 'international standard', 'config_control_design', 1994, #81 ) ;
#64 = PERSON_AND_ORGANIZATION ( #142, #177 ) ;
#65 = DATE_TIME_ROLE ( 'creation_date' ) ;
#66 = ORIENTED_EDGE ( 'NONE', *, *, #124, .T. ) ;
#67 = PERSON_AND_ORGANIZATION ( #142, #177 ) ;
#68 = EDGE_CURVE ( 'NONE', #122, #123, #106, .T. ) ;
#69 = LINE ( 'NONE', #74, #18 ) ;
#70 = ORIENTED_EDGE ( 'NONE', *, *, #111, .T. ) ;
#71 = PRODUCT_DEFINITION_SHAPE ( 'NONE', 'NONE',  #222 ) ;
#72 = AXIS2_PLACEMENT_3D ( 'NONE', #95, #208, #108 ) ;
#73 = ADVANCED_FACE ( 'NONE', ( #212 ), #39, .F. ) ;
#74 = CARTESIAN_POINT ( 'NONE',  ( -15.00000000000000000, 14.99999999999999822, 3.000000000000000000 ) ) ;
#75 = MANIFOLD_SOLID_BREP ( 'Boss-Extrude1', #200 ) ;
#76 = PERSON_AND_ORGANIZATION ( #142, #177 ) ;
#77 = ADVANCED_FACE ( 'NONE', ( #171 ), #59, .F. ) ;
#78 = CARTESIAN_POINT ( 'NONE',  ( 15.00000000000000355, -15.00000000000000000, -3.000000000000000000 ) ) ;
#79 = EDGE_CURVE ( 'NONE', #195, #204, #104, .T. ) ;
#80 = CARTESIAN_POINT ( 'NONE',  ( 15.00000000000000355, 15.00000000000000178, -3.000000000000000000 ) ) ;
#81 = APPLICATION_CONTEXT ( 'configuration controlled 3d designs of mechanical parts and assemblies' ) ;
#82 = CC_DESIGN_DATE_AND_TIME_ASSIGNMENT ( #100, #192, ( #131 ) ) ;
#83 = CARTESIAN_POINT ( 'NONE',  ( 15.00000000000000355, -15.00000000000000000, 3.000000000000000000 ) ) ;
#84 = EDGE_LOOP ( 'NONE', ( #161, #227, #57, #189 ) ) ;
#85 = LOCAL_TIME ( 13, 8, 37.00000000000000000, #179 ) ;
#86 = VECTOR ( 'NONE', #144, 1000.000000000000000 ) ;
#87 = APPROVAL ( #172, 'UNSPECIFIED' ) ;
#88 = ORIENTED_EDGE ( 'NONE', *, *, #16, .F. ) ;
#89 = VECTOR ( 'NONE', #184, 1000.000000000000000 ) ;
#90 = AXIS2_PLACEMENT_3D ( 'NONE', #149, #152, #228 ) ;
#91 = VECTOR ( 'NONE', #1, 1000.000000000000000 ) ;
#92 = EDGE_CURVE ( 'NONE', #11, #122, #146, .T. ) ;
#93 = EDGE_LOOP ( 'NONE', ( #58, #88, #103, #66 ) ) ;
#94 = FACE_OUTER_BOUND ( 'NONE', #168, .T. ) ;
#95 = CARTESIAN_POINT ( 'NONE',  ( 0.0000000000000000000, 0.0000000000000000000, -3.000000000000000000 ) ) ;
#96 = ORIENTED_EDGE ( 'NONE', *, *, #107, .T. ) ;
#97 = CARTESIAN_POINT ( 'NONE',  ( -15.00000000000000000, 14.99999999999999822, -3.000000000000000000 ) ) ;
#98 = ORIENTED_EDGE ( 'NONE', *, *, #42, .F. ) ;
#99 = VECTOR ( 'NONE', #125, 1000.000000000000000 ) ;
#100 = DATE_AND_TIME ( #13, #224 ) ;
#101 = ORIENTED_EDGE ( 'NONE', *, *, #68, .F. ) ;
#102 = PERSON_AND_ORGANIZATION ( #142, #177 ) ;
#103 = ORIENTED_EDGE ( 'NONE', *, *, #107, .F. ) ;
#104 = LINE ( 'NONE', #78, #49 ) ;
#105 = AXIS2_PLACEMENT_3D ( 'NONE', #114, #10, #127 ) ;
#106 = LINE ( 'NONE', #37, #86 ) ;
#107 = EDGE_CURVE ( 'NONE', #123, #54, #136, .T. ) ;
#108 = DIRECTION ( 'NONE',  ( 1.000000000000000000, 0.0000000000000000000, -0.0000000000000000000 ) ) ;
#109 = PERSON_AND_ORGANIZATION ( #142, #177 ) ;
#110 = DIRECTION ( 'NONE',  ( 1.156482317317871478E-16, -1.000000000000000000, 0.0000000000000000000 ) ) ;
#111 = EDGE_CURVE ( 'NONE', #54, #11, #154, .T. ) ;
#112 = PLANE ( 'NONE',  #219 ) ;
#113 = PLANE ( 'NONE',  #90 ) ;
#114 = CARTESIAN_POINT ( 'NONE',  ( -15.00000000000000000, -15.00000000000000355, 3.000000000000000000 ) ) ;
#115 = ADVANCED_BREP_SHAPE_REPRESENTATION ( 'Web Model 55257MX_15759', ( #75, #178 ), #130 ) ;
#116 = APPROVAL_STATUS ( 'not_yet_approved' ) ;
#117 = CC_DESIGN_DATE_AND_TIME_ASSIGNMENT ( #231, #65, ( #222 ) ) ;
#118 = PRODUCT_RELATED_PRODUCT_CATEGORY ( 'detail', '', ( #32 ) ) ;
#119 = VECTOR ( 'NONE', #211, 1000.000000000000000 ) ;
#120 = PERSON_AND_ORGANIZATION ( #142, #177 ) ;
#121 = DIRECTION ( 'NONE',  ( -0.0000000000000000000, -0.0000000000000000000, -1.000000000000000000 ) ) ;
#122 = VERTEX_POINT ( 'NONE', #229 ) ;
#123 = VERTEX_POINT ( 'NONE', #209 ) ;
#124 = EDGE_CURVE ( 'NONE', #123, #195, #202, .T. ) ;
#125 = DIRECTION ( 'NONE',  ( 0.0000000000000000000, 1.000000000000000000, 0.0000000000000000000 ) ) ;
#126 = ORIENTED_EDGE ( 'NONE', *, *, #124, .F. ) ;
#127 = DIRECTION ( 'NONE',  ( 0.0000000000000000000, 0.0000000000000000000, -1.000000000000000000 ) ) ;
#128 = PLANE ( 'NONE',  #72 ) ;
#129 = MECHANICAL_CONTEXT ( 'NONE', #81, 'mechanical' ) ;
#130 =( GEOMETRIC_REPRESENTATION_CONTEXT ( 3 ) GLOBAL_UNCERTAINTY_ASSIGNED_CONTEXT ( ( #21 ) ) GLOBAL_UNIT_ASSIGNED_CONTEXT ( ( #44, #170, #62 ) ) REPRESENTATION_CONTEXT ( 'NONE', 'WORKASPACE' ) );
#131 = SECURITY_CLASSIFICATION ( '', '', #193 ) ;
#132 = APPLICATION_CONTEXT ( 'configuration controlled 3d designs of mechanical parts and assemblies' ) ;
#133 = ORIENTED_EDGE ( 'NONE', *, *, #2, .T. ) ;
#134 = AXIS2_PLACEMENT_3D ( 'NONE', #225, #110, #167 ) ;
#135 = DESIGN_CONTEXT ( 'detailed design', #132, 'design' ) ;
#136 = LINE ( 'NONE', #24, #99 ) ;
#137 = LINE ( 'NONE', #181, #157 ) ;
#138 = COORDINATED_UNIVERSAL_TIME_OFFSET ( 5, 0, .BEHIND. ) ;
#139 = EDGE_CURVE ( 'NONE', #204, #194, #159, .T. ) ;
#140 = ORIENTED_EDGE ( 'NONE', *, *, #33, .F. ) ;
#141 = VECTOR ( 'NONE', #36, 1000.000000000000000 ) ;
#142 = PERSON ( 'UNSPECIFIED', 'UNSPECIFIED', 'UNSPECIFIED', ('UNSPECIFIED'), ('UNSPECIFIED'), ('UNSPECIFIED') ) ;
#143 = FACE_OUTER_BOUND ( 'NONE', #3, .T. ) ;
#144 = DIRECTION ( 'NONE',  ( 1.000000000000000000, 1.156482317317871478E-16, -0.0000000000000000000 ) ) ;
#145 = CC_DESIGN_PERSON_AND_ORGANIZATION_ASSIGNMENT ( #64, #27, ( #32 ) ) ;
#146 = LINE ( 'NONE', #22, #119 ) ;
#147 = ADVANCED_FACE ( 'NONE', ( #143 ), #128, .F. ) ;
#148 = CARTESIAN_POINT ( 'NONE',  ( 0.0000000000000000000, 0.0000000000000000000, 0.0000000000000000000 ) ) ;
#149 = CARTESIAN_POINT ( 'NONE',  ( 0.0000000000000000000, 0.0000000000000000000, 3.000000000000000000 ) ) ;
#150 = PERSON_AND_ORGANIZATION ( #142, #177 ) ;
#151 = DIRECTION ( 'NONE',  ( -0.0000000000000000000, -0.0000000000000000000, -1.000000000000000000 ) ) ;
#152 = DIRECTION ( 'NONE',  ( 0.0000000000000000000, -0.0000000000000000000, 1.000000000000000000 ) ) ;
#153 = APPROVAL_PERSON_ORGANIZATION ( #120, #235, #213 ) ;
#154 = LINE ( 'NONE', #226, #6 ) ;
#155 = PERSON_AND_ORGANIZATION_ROLE ( 'creator' ) ;
#156 = FACE_OUTER_BOUND ( 'NONE', #217, .T. ) ;
#157 = VECTOR ( 'NONE', #162, 1000.000000000000000 ) ;
#158 = LINE ( 'NONE', #19, #91 ) ;
#159 = LINE ( 'NONE', #80, #55 ) ;
#160 = AXIS2_PLACEMENT_3D ( 'NONE', #45, #61, #43 ) ;
#161 = ORIENTED_EDGE ( 'NONE', *, *, #139, .T. ) ;
#162 = DIRECTION ( 'NONE',  ( -0.0000000000000000000, -0.0000000000000000000, -1.000000000000000000 ) ) ;
#163 = CARTESIAN_POINT ( 'NONE',  ( 15.00000000000000355, 15.00000000000000178, 3.000000000000000000 ) ) ;
#164 = DIRECTION ( 'NONE',  ( -1.000000000000000000, -1.156482317317871478E-16, 0.0000000000000000000 ) ) ;
#165 = COORDINATED_UNIVERSAL_TIME_OFFSET ( 5, 0, .BEHIND. ) ;
#166 = CARTESIAN_POINT ( 'NONE',  ( 15.00000000000000355, 15.00000000000000178, -3.000000000000000000 ) ) ;
#167 = DIRECTION ( 'NONE',  ( 1.000000000000000000, 1.156482317317871478E-16, 0.0000000000000000000 ) ) ;
#168 = EDGE_LOOP ( 'NONE', ( #214, #126, #101, #210 ) ) ;
#169 = ORIENTED_EDGE ( 'NONE', *, *, #139, .F. ) ;
#170 =( NAMED_UNIT ( * ) PLANE_ANGLE_UNIT ( ) SI_UNIT ( $, .RADIAN. ) );
#171 = FACE_OUTER_BOUND ( 'NONE', #93, .T. ) ;
#172 = APPROVAL_STATUS ( 'not_yet_approved' ) ;
#173 = ORIENTED_EDGE ( 'NONE', *, *, #92, .F. ) ;
#174 = DATE_AND_TIME ( #17, #197 ) ;
#175 = DIRECTION ( 'NONE',  ( 1.000000000000000000, 0.0000000000000000000, 0.0000000000000000000 ) ) ;
#176 = PRODUCT_DEFINITION_FORMATION_WITH_SPECIFIED_SOURCE ( 'ANY', '', #32, .NOT_KNOWN. ) ;
#177 = ORGANIZATION ( 'UNSPECIFIED', 'UNSPECIFIED', '' ) ;
#178 = AXIS2_PLACEMENT_3D ( 'NONE', #148, #48, #175 ) ;
#179 = COORDINATED_UNIVERSAL_TIME_OFFSET ( 5, 0, .BEHIND. ) ;
#180 = EDGE_LOOP ( 'NONE', ( #218, #199, #96, #70 ) ) ;
#181 = CARTESIAN_POINT ( 'NONE',  ( -15.00000000000000000, -15.00000000000000355, 3.000000000000000000 ) ) ;
#182 = CARTESIAN_POINT ( 'NONE',  ( 15.00000000000000355, -15.00000000000000000, -3.000000000000000000 ) ) ;
#183 = LOCAL_TIME ( 13, 8, 37.00000000000000000, #165 ) ;
#184 = DIRECTION ( 'NONE',  ( 1.000000000000000000, 1.156482317317871478E-16, -0.0000000000000000000 ) ) ;
#185 = DIRECTION ( 'NONE',  ( -1.000000000000000000, -1.156482317317871478E-16, 0.0000000000000000000 ) ) ;
#186 = DIRECTION ( 'NONE',  ( -1.000000000000000000, -1.156482317317871478E-16, 0.0000000000000000000 ) ) ;
#187 = CALENDAR_DATE ( 2020, 19, 10 ) ;
#188 = CC_DESIGN_PERSON_AND_ORGANIZATION_ASSIGNMENT ( #109, #155, ( #222 ) ) ;
#189 = ORIENTED_EDGE ( 'NONE', *, *, #16, .T. ) ;
#190 = APPROVAL_STATUS ( 'not_yet_approved' ) ;
#191 = FACE_OUTER_BOUND ( 'NONE', #180, .T. ) ;
#192 = DATE_TIME_ROLE ( 'classification_date' ) ;
#193 = SECURITY_CLASSIFICATION_LEVEL ( 'unclassified' ) ;
#194 = VERTEX_POINT ( 'NONE', #97 ) ;
#195 = VERTEX_POINT ( 'NONE', #26 ) ;
#196 = APPROVAL_ROLE ( '' ) ;
#197 = LOCAL_TIME ( 13, 8, 37.00000000000000000, #12 ) ;
#198 = CALENDAR_DATE ( 2020, 19, 10 ) ;
#199 = ORIENTED_EDGE ( 'NONE', *, *, #68, .T. ) ;
#200 = CLOSED_SHELL ( 'NONE', ( #237, #223, #77, #73, #221, #147 ) ) ;
#201 = APPROVAL ( #116, 'UNSPECIFIED' ) ;
#202 = LINE ( 'NONE', #41, #5 ) ;
#203 = VERTEX_POINT ( 'NONE', #8 ) ;
#204 = VERTEX_POINT ( 'NONE', #166 ) ;
#205 = PLANE ( 'NONE',  #105 ) ;
#206 = DATE_AND_TIME ( #220, #85 ) ;
#207 = DIRECTION ( 'NONE',  ( 0.0000000000000000000, 1.000000000000000000, 0.0000000000000000000 ) ) ;
#208 = DIRECTION ( 'NONE',  ( 0.0000000000000000000, -0.0000000000000000000, 1.000000000000000000 ) ) ;
#209 = CARTESIAN_POINT ( 'NONE',  ( 15.00000000000000355, -15.00000000000000000, 3.000000000000000000 ) ) ;
#210 = ORIENTED_EDGE ( 'NONE', *, *, #42, .T. ) ;
#211 = DIRECTION ( 'NONE',  ( -0.0000000000000000000, -1.000000000000000000, -0.0000000000000000000 ) ) ;
#212 = FACE_OUTER_BOUND ( 'NONE', #84, .T. ) ;
#213 = APPROVAL_ROLE ( '' ) ;
#214 = ORIENTED_EDGE ( 'NONE', *, *, #33, .T. ) ;
#215 = APPROVAL_DATE_TIME ( #174, #235 ) ;
#216 = APPROVAL_ROLE ( '' ) ;
#217 = EDGE_LOOP ( 'NONE', ( #133, #98, #173, #9 ) ) ;
#218 = ORIENTED_EDGE ( 'NONE', *, *, #92, .T. ) ;
#219 = AXIS2_PLACEMENT_3D ( 'NONE', #83, #20, #185 ) ;
#220 = CALENDAR_DATE ( 2020, 19, 10 ) ;
#221 = ADVANCED_FACE ( 'NONE', ( #191 ), #113, .T. ) ;
#222 = PRODUCT_DEFINITION ( 'UNKNOWN', '', #176, #135 ) ;
#223 = ADVANCED_FACE ( 'NONE', ( #94 ), #112, .F. ) ;
#224 = LOCAL_TIME ( 13, 8, 37.00000000000000000, #234 ) ;
#225 = CARTESIAN_POINT ( 'NONE',  ( 15.00000000000000355, 15.00000000000000178, 3.000000000000000000 ) ) ;
#226 = CARTESIAN_POINT ( 'NONE',  ( 15.00000000000000355, 15.00000000000000178, 3.000000000000000000 ) ) ;
#227 = ORIENTED_EDGE ( 'NONE', *, *, #38, .F. ) ;
#228 = DIRECTION ( 'NONE',  ( 1.000000000000000000, 0.0000000000000000000, -0.0000000000000000000 ) ) ;
#229 = CARTESIAN_POINT ( 'NONE',  ( -15.00000000000000000, -15.00000000000000355, 3.000000000000000000 ) ) ;
#230 = PERSON_AND_ORGANIZATION_ROLE ( 'creator' ) ;
#231 = DATE_AND_TIME ( #198, #183 ) ;
#232 = CC_DESIGN_APPROVAL ( #235, ( #222 ) ) ;
#233 = CC_DESIGN_APPROVAL ( #201, ( #176 ) ) ;
#234 = COORDINATED_UNIVERSAL_TIME_OFFSET ( 5, 0, .BEHIND. ) ;
#235 = APPROVAL ( #190, 'UNSPECIFIED' ) ;
#236 = CC_DESIGN_PERSON_AND_ORGANIZATION_ASSIGNMENT ( #102, #47, ( #131 ) ) ;
#237 = ADVANCED_FACE ( 'NONE', ( #156 ), #205, .F. ) ;
ENDSEC;
END-ISO-10303-21;
