ISO-10303-21;
HEADER;
FILE_DESCRIPTION (( 'STEP AP203' ),
    '1' );
FILE_NAME ('Web Model 47568_47569.step',
    '2017-04-26T17:12:07',
    ( '' ),
    ( '' ),
    'SwSTEP 2.0',
    'SolidWorks 2016',
    '' );
FILE_SCHEMA (( 'CONFIG_CONTROL_DESIGN' ));
ENDSEC;

DATA;
#1 = VECTOR ( 'NONE', #302, 1000.000000000000000 ) ;
#2 =( NAMED_UNIT ( * ) PLANE_ANGLE_UNIT ( ) SI_UNIT ( $, .RADIAN. ) );
#3 = APPLICATION_PROTOCOL_DEFINITION ( 'international standard', 'config_control_design', 1994, #96 ) ;
#4 = APPROVAL_STATUS ( 'not_yet_approved' ) ;
#5 = VECTOR ( 'NONE', #87, 1000.000000000000000 ) ;
#6 = AXIS2_PLACEMENT_3D ( 'NONE', #223, #231, #247 ) ;
#7 = LINE ( 'NONE', #39, #229 ) ;
#8 = VECTOR ( 'NONE', #33, 1000.000000000000000 ) ;
#9 = EDGE_CURVE ( 'NONE', #38, #14, #251, .T. ) ;
#10 = ORIENTED_EDGE ( 'NONE', *, *, #36, .F. ) ;
#11 = DIRECTION ( 'NONE',  ( 0.7071067811865475700, 0.7071067811865475700, -0.0000000000000000000 ) ) ;
#12 = ORIENTED_EDGE ( 'NONE', *, *, #202, .T. ) ;
#13 = EDGE_CURVE ( 'NONE', #115, #249, #293, .T. ) ;
#14 = VERTEX_POINT ( 'NONE', #316 ) ;
#15 = AXIS2_PLACEMENT_3D ( 'NONE', #118, #56, #298 ) ;
#16 = CARTESIAN_POINT ( 'NONE',  ( 17.50000000000000000, 0.0000000000000000000, -17.50000000000000000 ) ) ;
#17 = LINE ( 'NONE', #260, #100 ) ;
#18 = DESIGN_CONTEXT ( 'detailed design', #96, 'design' ) ;
#19 = EDGE_LOOP ( 'NONE', ( #300, #124, #21 ) ) ;
#20 =( GEOMETRIC_REPRESENTATION_CONTEXT ( 3 ) GLOBAL_UNCERTAINTY_ASSIGNED_CONTEXT ( ( #257 ) ) GLOBAL_UNIT_ASSIGNED_CONTEXT ( ( #255, #2, #307 ) ) REPRESENTATION_CONTEXT ( 'NONE', 'WORKASPACE' ) );
#21 = ORIENTED_EDGE ( 'NONE', *, *, #299, .F. ) ;
#22 = PERSON_AND_ORGANIZATION_ROLE ( 'classification_officer' ) ;
#23 = EDGE_CURVE ( 'NONE', #14, #183, #242, .T. ) ;
#24 = ADVANCED_FACE ( 'NONE', ( #65 ), #148, .T. ) ;
#25 = DIRECTION ( 'NONE',  ( 0.0000000000000000000, 1.000000000000000000, -0.0000000000000000000 ) ) ;
#26 = COORDINATED_UNIVERSAL_TIME_OFFSET ( 5, 0, .BEHIND. ) ;
#27 = EDGE_CURVE ( 'NONE', #237, #86, #204, .T. ) ;
#28 = PERSON_AND_ORGANIZATION_ROLE ( 'design_owner' ) ;
#29 = FACE_OUTER_BOUND ( 'NONE', #108, .T. ) ;
#30 = EDGE_CURVE ( 'NONE', #179, #115, #7, .T. ) ;
#31 = DIRECTION ( 'NONE',  ( 0.7071067811865474600, -0.7071067811865474600, 0.0000000000000000000 ) ) ;
#32 = EDGE_CURVE ( 'NONE', #311, #249, #243, .T. ) ;
#33 = DIRECTION ( 'NONE',  ( 1.000000000000000000, 0.0000000000000000000, 0.0000000000000000000 ) ) ;
#34 = DIRECTION ( 'NONE',  ( 1.000000000000000000, 0.0000000000000000000, 0.0000000000000000000 ) ) ;
#35 = DIRECTION ( 'NONE',  ( 1.000000000000000000, 0.0000000000000000000, 0.0000000000000000000 ) ) ;
#36 = EDGE_CURVE ( 'NONE', #58, #115, #236, .T. ) ;
#37 = DIRECTION ( 'NONE',  ( 1.000000000000000000, 0.0000000000000000000, 0.0000000000000000000 ) ) ;
#38 = VERTEX_POINT ( 'NONE', #215 ) ;
#39 = CARTESIAN_POINT ( 'NONE',  ( 0.0000000000000000000, 0.0000000000000000000, 17.50000000000000000 ) ) ;
#40 = DIRECTION ( 'NONE',  ( -0.0000000000000000000, -0.0000000000000000000, -1.000000000000000000 ) ) ;
#41 = AXIS2_PLACEMENT_3D ( 'NONE', #169, #177, #305 ) ;
#42 = ORIENTED_EDGE ( 'NONE', *, *, #36, .T. ) ;
#43 = ORIENTED_EDGE ( 'NONE', *, *, #27, .T. ) ;
#44 = CARTESIAN_POINT ( 'NONE',  ( -17.50000000000000000, -17.50000000000000000, 17.50000000000000000 ) ) ;
#45 = PLANE ( 'NONE',  #6 ) ;
#46 = ORIENTED_EDGE ( 'NONE', *, *, #68, .T. ) ;
#47 = CARTESIAN_POINT ( 'NONE',  ( 17.50000000000000000, -17.50000000000000000, 17.50000000000000000 ) ) ;
#48 = CALENDAR_DATE ( 2017, 26, 4 ) ;
#49 = ORIENTED_EDGE ( 'NONE', *, *, #30, .T. ) ;
#50 = APPROVAL_ROLE ( '' ) ;
#51 = PRODUCT ( 'Web Model 47568_47569', 'Web Model 47568_47569', '', ( #218 ) ) ;
#52 = PLANE ( 'NONE',  #130 ) ;
#53 = AXIS2_PLACEMENT_3D ( 'NONE', #112, #76, #188 ) ;
#54 = PERSON_AND_ORGANIZATION_ROLE ( 'creator' ) ;
#55 = CARTESIAN_POINT ( 'NONE',  ( 17.50000000000000000, 17.50000000000000000, 17.50000000000000000 ) ) ;
#56 = DIRECTION ( 'NONE',  ( 0.7071067811865475700, 0.7071067811865475700, -0.0000000000000000000 ) ) ;
#57 = DIRECTION ( 'NONE',  ( 0.0000000000000000000, -0.0000000000000000000, 1.000000000000000000 ) ) ;
#58 = VERTEX_POINT ( 'NONE', #288 ) ;
#59 = ORIENTED_EDGE ( 'NONE', *, *, #196, .F. ) ;
#60 = ORIENTED_EDGE ( 'NONE', *, *, #68, .F. ) ;
#61 = ORIENTED_EDGE ( 'NONE', *, *, #78, .T. ) ;
#62 = CARTESIAN_POINT ( 'NONE',  ( -0.0000000000000000000, 0.0000000000000000000, -17.50000000000000000 ) ) ;
#63 = DATE_TIME_ROLE ( 'creation_date' ) ;
#64 = PLANE ( 'NONE',  #269 ) ;
#65 = FACE_OUTER_BOUND ( 'NONE', #106, .T. ) ;
#66 = LINE ( 'NONE', #189, #222 ) ;
#67 = MANIFOLD_SOLID_BREP ( 'Boss-Extrude2', #239 ) ;
#68 = EDGE_CURVE ( 'NONE', #38, #237, #217, .T. ) ;
#69 = DIRECTION ( 'NONE',  ( 0.0000000000000000000, 1.000000000000000000, -0.0000000000000000000 ) ) ;
#70 = FACE_OUTER_BOUND ( 'NONE', #85, .T. ) ;
#71 = LINE ( 'NONE', #161, #5 ) ;
#72 = DIRECTION ( 'NONE',  ( 0.0000000000000000000, 1.000000000000000000, -0.0000000000000000000 ) ) ;
#73 = PRODUCT_DEFINITION_FORMATION_WITH_SPECIFIED_SOURCE ( 'ANY', '', #51, .NOT_KNOWN. ) ;
#74 = EDGE_CURVE ( 'NONE', #14, #86, #306, .T. ) ;
#75 = ORIENTED_EDGE ( 'NONE', *, *, #202, .F. ) ;
#76 = DIRECTION ( 'NONE',  ( 0.0000000000000000000, 0.0000000000000000000, 1.000000000000000000 ) ) ;
#77 = CARTESIAN_POINT ( 'NONE',  ( 17.50000000000000000, 17.50000000000000000, 17.50000000000000000 ) ) ;
#78 = EDGE_CURVE ( 'NONE', #179, #311, #310, .T. ) ;
#79 = PRODUCT_DEFINITION_SHAPE ( 'NONE', 'NONE',  #292 ) ;
#80 = ORIENTED_EDGE ( 'NONE', *, *, #299, .T. ) ;
#81 = AXIS2_PLACEMENT_3D ( 'NONE', #131, #95, #197 ) ;
#82 = LOCAL_TIME ( 13, 12, 7.000000000000000000, #238 ) ;
#83 = ADVANCED_FACE ( 'NONE', ( #225 ), #93, .T. ) ;
#84 = COORDINATED_UNIVERSAL_TIME_OFFSET ( 5, 0, .BEHIND. ) ;
#85 = EDGE_LOOP ( 'NONE', ( #163, #226, #60, #241 ) ) ;
#86 = VERTEX_POINT ( 'NONE', #127 ) ;
#87 = DIRECTION ( 'NONE',  ( 1.000000000000000000, 0.0000000000000000000, 0.0000000000000000000 ) ) ;
#88 = EDGE_LOOP ( 'NONE', ( #208, #181, #49, #233 ) ) ;
#89 = ORIENTED_EDGE ( 'NONE', *, *, #248, .F. ) ;
#90 = EDGE_CURVE ( 'NONE', #244, #183, #94, .T. ) ;
#91 = FACE_OUTER_BOUND ( 'NONE', #19, .T. ) ;
#92 = PLANE ( 'NONE',  #15 ) ;
#93 = PLANE ( 'NONE',  #182 ) ;
#94 = LINE ( 'NONE', #55, #265 ) ;
#95 = DIRECTION ( 'NONE',  ( -1.000000000000000000, 0.0000000000000000000, 0.0000000000000000000 ) ) ;
#96 = APPLICATION_CONTEXT ( 'configuration controlled 3d designs of mechanical parts and assemblies' ) ;
#97 = DATE_AND_TIME ( #113, #158 ) ;
#98 = PERSON_AND_ORGANIZATION ( #141, #259 ) ;
#99 = CARTESIAN_POINT ( 'NONE',  ( 17.50000000000000000, -17.50000000000000000, 17.50000000000000000 ) ) ;
#100 = VECTOR ( 'NONE', #72, 1000.000000000000000 ) ;
#101 = CARTESIAN_POINT ( 'NONE',  ( 0.0000000000000000000, 0.0000000000000000000, 17.50000000000000000 ) ) ;
#102 = DIRECTION ( 'NONE',  ( 0.0000000000000000000, 1.000000000000000000, -0.0000000000000000000 ) ) ;
#103 = LINE ( 'NONE', #180, #143 ) ;
#104 = LOCAL_TIME ( 13, 12, 7.000000000000000000, #276 ) ;
#105 = PERSON_AND_ORGANIZATION_ROLE ( 'creator' ) ;
#106 = EDGE_LOOP ( 'NONE', ( #114, #272, #232, #61 ) ) ;
#107 = PERSON_AND_ORGANIZATION ( #141, #259 ) ;
#108 = EDGE_LOOP ( 'NONE', ( #230, #304, #10, #210 ) ) ;
#109 = CARTESIAN_POINT ( 'NONE',  ( -17.50000000000000000, 17.50000000000000000, 17.50000000000000000 ) ) ;
#110 = VECTOR ( 'NONE', #199, 1000.000000000000000 ) ;
#111 = CARTESIAN_POINT ( 'NONE',  ( 17.50000000000000000, -17.50000000000000000, -17.50000000000000000 ) ) ;
#112 = CARTESIAN_POINT ( 'NONE',  ( 0.0000000000000000000, 0.0000000000000000000, 0.0000000000000000000 ) ) ;
#113 = CALENDAR_DATE ( 2017, 26, 4 ) ;
#114 = ORIENTED_EDGE ( 'NONE', *, *, #165, .F. ) ;
#115 = VERTEX_POINT ( 'NONE', #184 ) ;
#116 = ADVANCED_BREP_SHAPE_REPRESENTATION ( 'Web Model 47568_47569', ( #67, #261, #53 ), #20 ) ;
#117 = SECURITY_CLASSIFICATION ( '', '', #294 ) ;
#118 = CARTESIAN_POINT ( 'NONE',  ( 0.0000000000000000000, 0.0000000000000000000, 17.50000000000000000 ) ) ;
#119 = CC_DESIGN_PERSON_AND_ORGANIZATION_ASSIGNMENT ( #195, #105, ( #292 ) ) ;
#120 = APPROVAL_ROLE ( '' ) ;
#121 = COORDINATED_UNIVERSAL_TIME_OFFSET ( 5, 0, .BEHIND. ) ;
#122 = PERSON_AND_ORGANIZATION ( #141, #259 ) ;
#123 = ORIENTED_EDGE ( 'NONE', *, *, #9, .F. ) ;
#124 = ORIENTED_EDGE ( 'NONE', *, *, #23, .T. ) ;
#125 = ORIENTED_EDGE ( 'NONE', *, *, #248, .T. ) ;
#126 = APPLICATION_CONTEXT ( 'configuration controlled 3d designs of mechanical parts and assemblies' ) ;
#127 = CARTESIAN_POINT ( 'NONE',  ( 17.50000000000000000, -17.50000000000000000, -17.50000000000000000 ) ) ;
#128 = CARTESIAN_POINT ( 'NONE',  ( 0.0000000000000000000, 0.0000000000000000000, -17.50000000000000000 ) ) ;
#129 = ADVANCED_FACE ( 'NONE', ( #155 ), #138, .T. ) ;
#130 = AXIS2_PLACEMENT_3D ( 'NONE', #170, #219, #34 ) ;
#131 = CARTESIAN_POINT ( 'NONE',  ( 17.50000000000000000, 0.0000000000000000000, 17.50000000000000000 ) ) ;
#132 = DIRECTION ( 'NONE',  ( 1.000000000000000000, 0.0000000000000000000, 0.0000000000000000000 ) ) ;
#133 = CARTESIAN_POINT ( 'NONE',  ( 0.0000000000000000000, -17.50000000000000000, 17.50000000000000000 ) ) ;
#134 = EDGE_LOOP ( 'NONE', ( #290, #42, #253 ) ) ;
#135 = DIRECTION ( 'NONE',  ( -0.0000000000000000000, -0.0000000000000000000, -1.000000000000000000 ) ) ;
#136 = ADVANCED_FACE ( 'NONE', ( #174 ), #64, .T. ) ;
#137 = DIRECTION ( 'NONE',  ( -0.0000000000000000000, 0.0000000000000000000, 1.000000000000000000 ) ) ;
#138 = PLANE ( 'NONE',  #273 ) ;
#139 = EDGE_LOOP ( 'NONE', ( #263, #209, #59 ) ) ;
#140 = APPROVAL_DATE_TIME ( #281, #201 ) ;
#141 = PERSON ( 'UNSPECIFIED', 'UNSPECIFIED', 'UNSPECIFIED', ('UNSPECIFIED'), ('UNSPECIFIED'), ('UNSPECIFIED') ) ;
#142 = EDGE_LOOP ( 'NONE', ( #80, #151, #89, #43 ) ) ;
#143 = VECTOR ( 'NONE', #69, 1000.000000000000000 ) ;
#144 = DIRECTION ( 'NONE',  ( -0.0000000000000000000, -0.0000000000000000000, -1.000000000000000000 ) ) ;
#145 = DIRECTION ( 'NONE',  ( -0.0000000000000000000, -0.0000000000000000000, -1.000000000000000000 ) ) ;
#146 = DATE_TIME_ROLE ( 'classification_date' ) ;
#147 = CC_DESIGN_PERSON_AND_ORGANIZATION_ASSIGNMENT ( #107, #22, ( #117 ) ) ;
#148 = PLANE ( 'NONE',  #41 ) ;
#149 = CC_DESIGN_APPROVAL ( #194, ( #292 ) ) ;
#150 = VECTOR ( 'NONE', #144, 1000.000000000000000 ) ;
#151 = ORIENTED_EDGE ( 'NONE', *, *, #90, .F. ) ;
#152 = PERSON_AND_ORGANIZATION ( #141, #259 ) ;
#153 = SHAPE_DEFINITION_REPRESENTATION ( #79, #116 ) ;
#154 = DIRECTION ( 'NONE',  ( -0.0000000000000000000, -0.0000000000000000000, -1.000000000000000000 ) ) ;
#155 = FACE_OUTER_BOUND ( 'NONE', #88, .T. ) ;
#156 = CARTESIAN_POINT ( 'NONE',  ( -17.50000000000000000, -17.50000000000000000, -17.50000000000000000 ) ) ;
#157 = CARTESIAN_POINT ( 'NONE',  ( -17.50000000000000000, 17.50000000000000000, -17.50000000000000000 ) ) ;
#158 = LOCAL_TIME ( 13, 12, 7.000000000000000000, #84 ) ;
#159 = ADVANCED_FACE ( 'NONE', ( #91 ), #52, .F. ) ;
#160 = CC_DESIGN_APPROVAL ( #201, ( #73 ) ) ;
#161 = CARTESIAN_POINT ( 'NONE',  ( 0.0000000000000000000, -17.50000000000000000, -17.50000000000000000 ) ) ;
#162 = DATE_AND_TIME ( #192, #104 ) ;
#163 = ORIENTED_EDGE ( 'NONE', *, *, #74, .T. ) ;
#164 = APPROVAL_STATUS ( 'not_yet_approved' ) ;
#165 = EDGE_CURVE ( 'NONE', #280, #311, #17, .T. ) ;
#166 = CALENDAR_DATE ( 2017, 26, 4 ) ;
#167 = CALENDAR_DATE ( 2017, 26, 4 ) ;
#168 = PRODUCT_RELATED_PRODUCT_CATEGORY ( 'detail', '', ( #51 ) ) ;
#169 = CARTESIAN_POINT ( 'NONE',  ( -17.50000000000000000, 0.0000000000000000000, 17.50000000000000000 ) ) ;
#170 = CARTESIAN_POINT ( 'NONE',  ( 0.0000000000000000000, 0.0000000000000000000, -17.50000000000000000 ) ) ;
#171 = LINE ( 'NONE', #286, #211 ) ;
#172 = APPROVAL_PERSON_ORGANIZATION ( #240, #194, #50 ) ;
#173 = FACE_OUTER_BOUND ( 'NONE', #142, .T. ) ;
#174 = FACE_OUTER_BOUND ( 'NONE', #250, .T. ) ;
#175 = LINE ( 'NONE', #16, #221 ) ;
#176 = CARTESIAN_POINT ( 'NONE',  ( -17.50000000000000000, 17.50000000000000000, 17.50000000000000000 ) ) ;
#177 = DIRECTION ( 'NONE',  ( -1.000000000000000000, 0.0000000000000000000, 0.0000000000000000000 ) ) ;
#178 = DIRECTION ( 'NONE',  ( -0.0000000000000000000, 0.0000000000000000000, 1.000000000000000000 ) ) ;
#179 = VERTEX_POINT ( 'NONE', #109 ) ;
#180 = CARTESIAN_POINT ( 'NONE',  ( 17.50000000000000000, 0.0000000000000000000, 17.50000000000000000 ) ) ;
#181 = ORIENTED_EDGE ( 'NONE', *, *, #78, .F. ) ;
#182 = AXIS2_PLACEMENT_3D ( 'NONE', #303, #252, #57 ) ;
#183 = VERTEX_POINT ( 'NONE', #282 ) ;
#184 = CARTESIAN_POINT ( 'NONE',  ( 17.50000000000000000, -17.50000000000000000, 17.50000000000000000 ) ) ;
#185 = ADVANCED_FACE ( 'NONE', ( #207 ), #312, .T. ) ;
#186 = VECTOR ( 'NONE', #154, 1000.000000000000000 ) ;
#187 = CARTESIAN_POINT ( 'NONE',  ( 0.0000000000000000000, 0.0000000000000000000, 17.50000000000000000 ) ) ;
#188 = DIRECTION ( 'NONE',  ( 1.000000000000000000, 0.0000000000000000000, 0.0000000000000000000 ) ) ;
#189 = CARTESIAN_POINT ( 'NONE',  ( -17.50000000000000000, 0.0000000000000000000, 17.50000000000000000 ) ) ;
#190 = CLOSED_SHELL ( 'NONE', ( #315, #319, #83, #136, #159 ) ) ;
#191 = APPROVAL_ROLE ( '' ) ;
#192 = CALENDAR_DATE ( 2017, 26, 4 ) ;
#193 = PLANE ( 'NONE',  #308 ) ;
#194 = APPROVAL ( #164, 'UNSPECIFIED' ) ;
#195 = PERSON_AND_ORGANIZATION ( #141, #259 ) ;
#196 = EDGE_CURVE ( 'NONE', #280, #249, #71, .T. ) ;
#197 = DIRECTION ( 'NONE',  ( 0.0000000000000000000, 0.0000000000000000000, 1.000000000000000000 ) ) ;
#198 = DATE_AND_TIME ( #167, #82 ) ;
#199 = DIRECTION ( 'NONE',  ( 1.000000000000000000, 0.0000000000000000000, 0.0000000000000000000 ) ) ;
#200 = VECTOR ( 'NONE', #213, 1000.000000000000100 ) ;
#201 = APPROVAL ( #4, 'UNSPECIFIED' ) ;
#202 = EDGE_CURVE ( 'NONE', #38, #244, #171, .T. ) ;
#203 = EDGE_CURVE ( 'NONE', #58, #179, #66, .T. ) ;
#204 = LINE ( 'NONE', #47, #320 ) ;
#205 = APPROVAL_PERSON_ORGANIZATION ( #152, #201, #191 ) ;
#206 = CC_DESIGN_SECURITY_CLASSIFICATION ( #117, ( #73 ) ) ;
#207 = FACE_OUTER_BOUND ( 'NONE', #134, .T. ) ;
#208 = ORIENTED_EDGE ( 'NONE', *, *, #32, .F. ) ;
#209 = ORIENTED_EDGE ( 'NONE', *, *, #32, .T. ) ;
#210 = ORIENTED_EDGE ( 'NONE', *, *, #291, .T. ) ;
#211 = VECTOR ( 'NONE', #37, 1000.000000000000000 ) ;
#212 = APPROVAL ( #264, 'UNSPECIFIED' ) ;
#213 = DIRECTION ( 'NONE',  ( 0.7071067811865474600, -0.7071067811865474600, 0.0000000000000000000 ) ) ;
#214 = ORIENTED_EDGE ( 'NONE', *, *, #90, .T. ) ;
#215 = CARTESIAN_POINT ( 'NONE',  ( -17.50000000000000000, 17.50000000000000000, 17.50000000000000000 ) ) ;
#216 = CARTESIAN_POINT ( 'NONE',  ( -17.50000000000000000, 17.50000000000000000, 17.50000000000000000 ) ) ;
#217 = LINE ( 'NONE', #262, #297 ) ;
#218 = MECHANICAL_CONTEXT ( 'NONE', #126, 'mechanical' ) ;
#219 = DIRECTION ( 'NONE',  ( -0.0000000000000000000, 0.0000000000000000000, 1.000000000000000000 ) ) ;
#220 = DIRECTION ( 'NONE',  ( 1.000000000000000000, 0.0000000000000000000, 0.0000000000000000000 ) ) ;
#221 = VECTOR ( 'NONE', #102, 1000.000000000000000 ) ;
#222 = VECTOR ( 'NONE', #25, 1000.000000000000000 ) ;
#223 = CARTESIAN_POINT ( 'NONE',  ( 0.0000000000000000000, -17.50000000000000000, 17.50000000000000000 ) ) ;
#224 = PERSON_AND_ORGANIZATION ( #141, #259 ) ;
#225 = FACE_OUTER_BOUND ( 'NONE', #278, .T. ) ;
#226 = ORIENTED_EDGE ( 'NONE', *, *, #27, .F. ) ;
#227 = CARTESIAN_POINT ( 'NONE',  ( -0.0000000000000000000, 17.50000000000000000, -17.50000000000000000 ) ) ;
#228 = CC_DESIGN_PERSON_AND_ORGANIZATION_ASSIGNMENT ( #98, #54, ( #73 ) ) ;
#229 = VECTOR ( 'NONE', #31, 1000.000000000000100 ) ;
#230 = ORIENTED_EDGE ( 'NONE', *, *, #196, .T. ) ;
#231 = DIRECTION ( 'NONE',  ( 0.0000000000000000000, 1.000000000000000000, 0.0000000000000000000 ) ) ;
#232 = ORIENTED_EDGE ( 'NONE', *, *, #203, .T. ) ;
#233 = ORIENTED_EDGE ( 'NONE', *, *, #13, .T. ) ;
#234 = DIRECTION ( 'NONE',  ( 0.7071067811865474600, -0.7071067811865474600, 0.0000000000000000000 ) ) ;
#235 = CARTESIAN_POINT ( 'NONE',  ( 0.0000000000000000000, 0.0000000000000000000, 17.50000000000000000 ) ) ;
#236 = LINE ( 'NONE', #133, #8 ) ;
#237 = VERTEX_POINT ( 'NONE', #99 ) ;
#238 = COORDINATED_UNIVERSAL_TIME_OFFSET ( 5, 0, .BEHIND. ) ;
#239 = CLOSED_SHELL ( 'NONE', ( #24, #318, #129, #185, #266 ) ) ;
#240 = PERSON_AND_ORGANIZATION ( #141, #259 ) ;
#241 = ORIENTED_EDGE ( 'NONE', *, *, #9, .T. ) ;
#242 = LINE ( 'NONE', #227, #110 ) ;
#243 = LINE ( 'NONE', #62, #277 ) ;
#244 = VERTEX_POINT ( 'NONE', #77 ) ;
#245 = CC_DESIGN_DATE_AND_TIME_ASSIGNMENT ( #198, #63, ( #292 ) ) ;
#246 = VECTOR ( 'NONE', #135, 1000.000000000000000 ) ;
#247 = DIRECTION ( 'NONE',  ( 0.0000000000000000000, -0.0000000000000000000, 1.000000000000000000 ) ) ;
#248 = EDGE_CURVE ( 'NONE', #237, #244, #103, .T. ) ;
#249 = VERTEX_POINT ( 'NONE', #111 ) ;
#250 = EDGE_LOOP ( 'NONE', ( #46, #125, #75 ) ) ;
#251 = LINE ( 'NONE', #176, #186 ) ;
#252 = DIRECTION ( 'NONE',  ( 0.0000000000000000000, 1.000000000000000000, 0.0000000000000000000 ) ) ;
#253 = ORIENTED_EDGE ( 'NONE', *, *, #30, .F. ) ;
#254 = PERSON_AND_ORGANIZATION ( #141, #259 ) ;
#255 =( LENGTH_UNIT ( ) NAMED_UNIT ( * ) SI_UNIT ( .MILLI., .METRE. ) );
#256 = CARTESIAN_POINT ( 'NONE',  ( 17.50000000000000000, -17.50000000000000000, 17.50000000000000000 ) ) ;
#257 = UNCERTAINTY_MEASURE_WITH_UNIT (LENGTH_MEASURE( 1.000000000000000100E-005 ), #255, 'distance_accuracy_value', 'NONE');
#258 = APPLICATION_PROTOCOL_DEFINITION ( 'international standard', 'config_control_design', 1994, #126 ) ;
#259 = ORGANIZATION ( 'UNSPECIFIED', 'UNSPECIFIED', '' ) ;
#260 = CARTESIAN_POINT ( 'NONE',  ( -17.50000000000000000, 0.0000000000000000000, -17.50000000000000000 ) ) ;
#261 = MANIFOLD_SOLID_BREP ( 'Boss-Extrude3', #190 ) ;
#262 = CARTESIAN_POINT ( 'NONE',  ( 0.0000000000000000000, 0.0000000000000000000, 17.50000000000000000 ) ) ;
#263 = ORIENTED_EDGE ( 'NONE', *, *, #165, .T. ) ;
#264 = APPROVAL_STATUS ( 'not_yet_approved' ) ;
#265 = VECTOR ( 'NONE', #40, 1000.000000000000000 ) ;
#266 = ADVANCED_FACE ( 'NONE', ( #296 ), #193, .F. ) ;
#267 = LOCAL_TIME ( 13, 12, 7.000000000000000000, #26 ) ;
#268 = CC_DESIGN_PERSON_AND_ORGANIZATION_ASSIGNMENT ( #224, #28, ( #51 ) ) ;
#269 = AXIS2_PLACEMENT_3D ( 'NONE', #187, #137, #132 ) ;
#270 = PLANE ( 'NONE',  #81 ) ;
#271 = DATE_AND_TIME ( #166, #267 ) ;
#272 = ORIENTED_EDGE ( 'NONE', *, *, #291, .F. ) ;
#273 = AXIS2_PLACEMENT_3D ( 'NONE', #235, #11, #301 ) ;
#274 = LOCAL_TIME ( 13, 12, 7.000000000000000000, #121 ) ;
#275 = CARTESIAN_POINT ( 'NONE',  ( -0.0000000000000000000, 0.0000000000000000000, -17.50000000000000000 ) ) ;
#276 = COORDINATED_UNIVERSAL_TIME_OFFSET ( 5, 0, .BEHIND. ) ;
#277 = VECTOR ( 'NONE', #234, 1000.000000000000100 ) ;
#278 = EDGE_LOOP ( 'NONE', ( #285, #123, #12, #214 ) ) ;
#279 = CC_DESIGN_PERSON_AND_ORGANIZATION_ASSIGNMENT ( #122, #313, ( #73 ) ) ;
#280 = VERTEX_POINT ( 'NONE', #156 ) ;
#281 = DATE_AND_TIME ( #48, #274 ) ;
#282 = CARTESIAN_POINT ( 'NONE',  ( 17.50000000000000000, 17.50000000000000000, -17.50000000000000000 ) ) ;
#283 = CC_DESIGN_APPROVAL ( #212, ( #117 ) ) ;
#284 = LINE ( 'NONE', #44, #1 ) ;
#285 = ORIENTED_EDGE ( 'NONE', *, *, #23, .F. ) ;
#286 = CARTESIAN_POINT ( 'NONE',  ( 0.0000000000000000000, 17.50000000000000000, 17.50000000000000000 ) ) ;
#287 = AXIS2_PLACEMENT_3D ( 'NONE', #101, #178, #35 ) ;
#288 = CARTESIAN_POINT ( 'NONE',  ( -17.50000000000000000, -17.50000000000000000, 17.50000000000000000 ) ) ;
#289 = CC_DESIGN_DATE_AND_TIME_ASSIGNMENT ( #271, #146, ( #117 ) ) ;
#290 = ORIENTED_EDGE ( 'NONE', *, *, #203, .F. ) ;
#291 = EDGE_CURVE ( 'NONE', #58, #280, #284, .T. ) ;
#292 = PRODUCT_DEFINITION ( 'UNKNOWN', '', #73, #18 ) ;
#293 = LINE ( 'NONE', #256, #150 ) ;
#294 = SECURITY_CLASSIFICATION_LEVEL ( 'unclassified' ) ;
#295 = APPROVAL_DATE_TIME ( #97, #194 ) ;
#296 = FACE_OUTER_BOUND ( 'NONE', #139, .T. ) ;
#297 = VECTOR ( 'NONE', #309, 1000.000000000000100 ) ;
#298 = DIRECTION ( 'NONE',  ( -0.7071067811865474600, 0.7071067811865474600, 0.0000000000000000000 ) ) ;
#299 = EDGE_CURVE ( 'NONE', #86, #183, #175, .T. ) ;
#300 = ORIENTED_EDGE ( 'NONE', *, *, #74, .F. ) ;
#301 = DIRECTION ( 'NONE',  ( -0.7071067811865474600, 0.7071067811865474600, 0.0000000000000000000 ) ) ;
#302 = DIRECTION ( 'NONE',  ( -0.0000000000000000000, -0.0000000000000000000, -1.000000000000000000 ) ) ;
#303 = CARTESIAN_POINT ( 'NONE',  ( 0.0000000000000000000, 17.50000000000000000, 17.50000000000000000 ) ) ;
#304 = ORIENTED_EDGE ( 'NONE', *, *, #13, .F. ) ;
#305 = DIRECTION ( 'NONE',  ( 0.0000000000000000000, 0.0000000000000000000, 1.000000000000000000 ) ) ;
#306 = LINE ( 'NONE', #275, #200 ) ;
#307 =( NAMED_UNIT ( * ) SI_UNIT ( $, .STERADIAN. ) SOLID_ANGLE_UNIT ( ) );
#308 = AXIS2_PLACEMENT_3D ( 'NONE', #128, #321, #220 ) ;
#309 = DIRECTION ( 'NONE',  ( 0.7071067811865474600, -0.7071067811865474600, 0.0000000000000000000 ) ) ;
#310 = LINE ( 'NONE', #216, #246 ) ;
#311 = VERTEX_POINT ( 'NONE', #157 ) ;
#312 = PLANE ( 'NONE',  #287 ) ;
#313 = PERSON_AND_ORGANIZATION_ROLE ( 'design_supplier' ) ;
#314 = APPROVAL_DATE_TIME ( #162, #212 ) ;
#315 = ADVANCED_FACE ( 'NONE', ( #70 ), #92, .F. ) ;
#316 = CARTESIAN_POINT ( 'NONE',  ( -17.50000000000000000, 17.50000000000000000, -17.50000000000000000 ) ) ;
#317 = APPROVAL_PERSON_ORGANIZATION ( #254, #212, #120 ) ;
#318 = ADVANCED_FACE ( 'NONE', ( #29 ), #45, .F. ) ;
#319 = ADVANCED_FACE ( 'NONE', ( #173 ), #270, .F. ) ;
#320 = VECTOR ( 'NONE', #145, 1000.000000000000000 ) ;
#321 = DIRECTION ( 'NONE',  ( -0.0000000000000000000, 0.0000000000000000000, 1.000000000000000000 ) ) ;
ENDSEC;
END-ISO-10303-21;
