ISO-10303-21;
HEADER;
FILE_DESCRIPTION (( 'STEP AP203' ),
    '1' );
FILE_NAME ('Web Model 34241_34244.step',
    '2017-06-05T13:27:15',
    ( '' ),
    ( '' ),
    'SwSTEP 2.0',
    'SolidWorks 2016',
    '' );
FILE_SCHEMA (( 'CONFIG_CONTROL_DESIGN' ));
ENDSEC;

DATA;
#1 = EDGE_CURVE ( 'NONE', #144, #175, #126, .T. ) ;
#2 = VECTOR ( 'NONE', #121, 1000.000000000000000 ) ;
#3 = SECURITY_CLASSIFICATION ( '', '', #43 ) ;
#4 = ADVANCED_FACE ( 'NONE', ( #114 ), #7, .T. ) ;
#5 = APPROVAL_STATUS ( 'not_yet_approved' ) ;
#6 = CLOSED_SHELL ( 'NONE', ( #111, #59, #4, #57 ) ) ;
#7 = CYLINDRICAL_SURFACE ( 'NONE', #124, 6.250000000000000000 ) ;
#8 = CARTESIAN_POINT ( 'NONE',  ( 6.250000000000000000, 0.0000000000000000000, 0.0000000000000000000 ) ) ;
#9 = LOCAL_TIME ( 9, 27, 15.00000000000000000, #166 ) ;
#10 =( LENGTH_UNIT ( ) NAMED_UNIT ( * ) SI_UNIT ( .MILLI., .METRE. ) );
#11 = DIRECTION ( 'NONE',  ( 0.0000000000000000000, 0.9999619230641713100, 0.008726535498366846600 ) ) ;
#12 = ORIENTED_EDGE ( 'NONE', *, *, #130, .F. ) ;
#13 =( BOUNDED_CURVE ( )  B_SPLINE_CURVE ( 3, ( #86, #116, #156, #142 ),
 .UNSPECIFIED., .F., .T. ) 
 B_SPLINE_CURVE_WITH_KNOTS ( ( 4, 4 ),
 ( 1.570796326794896600, 4.712388980384689700 ),
 .UNSPECIFIED. ) 
 CURVE ( )  GEOMETRIC_REPRESENTATION_ITEM ( )  RATIONAL_B_SPLINE_CURVE ( ( 1.000000000000000000, 0.3333333333333333700, 0.3333333333333333700, 1.000000000000000000 ) ) 
 REPRESENTATION_ITEM ( '' )  );
#14 = DATE_TIME_ROLE ( 'classification_date' ) ;
#15 = APPROVAL_STATUS ( 'not_yet_approved' ) ;
#16 = EDGE_LOOP ( 'NONE', ( #103, #69 ) ) ;
#17 = PERSON_AND_ORGANIZATION ( #82, #29 ) ;
#18 = PERSON_AND_ORGANIZATION_ROLE ( 'design_supplier' ) ;
#19 = SHAPE_DEFINITION_REPRESENTATION ( #56, #91 ) ;
#20 = PERSON_AND_ORGANIZATION ( #82, #29 ) ;
#21 = CARTESIAN_POINT ( 'NONE',  ( 6.250000000000002700, 12.50000000000000000, -2.945457076307802100 ) ) ;
#22 = CC_DESIGN_DATE_AND_TIME_ASSIGNMENT ( #164, #14, ( #3 ) ) ;
#23 = ORIENTED_EDGE ( 'NONE', *, *, #1, .F. ) ;
#24 = CARTESIAN_POINT ( 'NONE',  ( 0.0000000000000000000, 0.0000000000000000000, 0.0000000000000000000 ) ) ;
#25 = COORDINATED_UNIVERSAL_TIME_OFFSET ( 5, 0, .BEHIND. ) ;
#26 = DIRECTION ( 'NONE',  ( 1.000000000000000000, 0.0000000000000000000, -0.0000000000000000000 ) ) ;
#27 = CC_DESIGN_PERSON_AND_ORGANIZATION_ASSIGNMENT ( #68, #93, ( #115 ) ) ;
#28 = VERTEX_POINT ( 'NONE', #102 ) ;
#29 = ORGANIZATION ( 'UNSPECIFIED', 'UNSPECIFIED', '' ) ;
#30 = LOCAL_TIME ( 9, 27, 15.00000000000000000, #63 ) ;
#31 = APPLICATION_CONTEXT ( 'configuration controlled 3d designs of mechanical parts and assemblies' ) ;
#32 = MECHANICAL_CONTEXT ( 'NONE', #31, 'mechanical' ) ;
#33 = PERSON_AND_ORGANIZATION ( #82, #29 ) ;
#34 = APPLICATION_PROTOCOL_DEFINITION ( 'international standard', 'config_control_design', 1994, #31 ) ;
#35 = ORIENTED_EDGE ( 'NONE', *, *, #130, .T. ) ;
#36 = APPROVAL_PERSON_ORGANIZATION ( #60, #107, #95 ) ;
#37 = ORIENTED_EDGE ( 'NONE', *, *, #38, .F. ) ;
#38 = EDGE_CURVE ( 'NONE', #175, #144, #13, .T. ) ;
#39 = LINE ( 'NONE', #67, #109 ) ;
#40 = COORDINATED_UNIVERSAL_TIME_OFFSET ( 5, 0, .BEHIND. ) ;
#41 = ORIENTED_EDGE ( 'NONE', *, *, #1, .T. ) ;
#42 = DATE_AND_TIME ( #58, #92 ) ;
#43 = SECURITY_CLASSIFICATION_LEVEL ( 'unclassified' ) ;
#44 = APPLICATION_PROTOCOL_DEFINITION ( 'international standard', 'config_control_design', 1994, #153 ) ;
#45 = CARTESIAN_POINT ( 'NONE',  ( -6.250000000000000000, 7.654042494670957600E-016, -3.054542923692198400 ) ) ;
#46 = ORIENTED_EDGE ( 'NONE', *, *, #119, .F. ) ;
#47 = ORIENTED_EDGE ( 'NONE', *, *, #106, .F. ) ;
#48 = PLANE ( 'NONE',  #151 ) ;
#49 = DIRECTION ( 'NONE',  ( 0.0000000000000000000, 0.0000000000000000000, 1.000000000000000000 ) ) ;
#50 =( NAMED_UNIT ( * ) PLANE_ANGLE_UNIT ( ) SI_UNIT ( $, .RADIAN. ) );
#51 = ORIENTED_EDGE ( 'NONE', *, *, #55, .F. ) ;
#52 = AXIS2_PLACEMENT_3D ( 'NONE', #171, #159, #87 ) ;
#53 = DESIGN_CONTEXT ( 'detailed design', #153, 'design' ) ;
#54 = PERSON_AND_ORGANIZATION ( #82, #29 ) ;
#55 = EDGE_CURVE ( 'NONE', #28, #157, #152, .T. ) ;
#56 = PRODUCT_DEFINITION_SHAPE ( 'NONE', 'NONE',  #115 ) ;
#57 = ADVANCED_FACE ( 'NONE', ( #77 ), #48, .T. ) ;
#58 = CALENDAR_DATE ( 2017, 5, 6 ) ;
#59 = ADVANCED_FACE ( 'NONE', ( #125 ), #89, .T. ) ;
#60 = PERSON_AND_ORGANIZATION ( #82, #29 ) ;
#61 = UNCERTAINTY_MEASURE_WITH_UNIT (LENGTH_MEASURE( 1.000000000000000100E-005 ), #10, 'distance_accuracy_value', 'NONE');
#62 = CARTESIAN_POINT ( 'NONE',  ( -6.250000000000005300, 12.50000000000000000, -2.945457076307802100 ) ) ;
#63 = COORDINATED_UNIVERSAL_TIME_OFFSET ( 5, 0, .BEHIND. ) ;
#64 = DIRECTION ( 'NONE',  ( -0.0000000000000000000, -0.0000000000000000000, 1.000000000000000000 ) ) ;
#65 = CARTESIAN_POINT ( 'NONE',  ( -6.250000000000000000, 7.654042494670957600E-016, -3.109085847384396300 ) ) ;
#66 = AXIS2_PLACEMENT_3D ( 'NONE', #120, #81, #105 ) ;
#67 = CARTESIAN_POINT ( 'NONE',  ( 6.250000000000000000, 0.0000000000000000000, -3.109085847384396300 ) ) ;
#68 = PERSON_AND_ORGANIZATION ( #82, #29 ) ;
#69 = ORIENTED_EDGE ( 'NONE', *, *, #55, .T. ) ;
#70 = DATE_AND_TIME ( #98, #9 ) ;
#71 = CC_DESIGN_SECURITY_CLASSIFICATION ( #3, ( #96 ) ) ;
#72 =( GEOMETRIC_REPRESENTATION_CONTEXT ( 3 ) GLOBAL_UNCERTAINTY_ASSIGNED_CONTEXT ( ( #61 ) ) GLOBAL_UNIT_ASSIGNED_CONTEXT ( ( #10, #50, #148 ) ) REPRESENTATION_CONTEXT ( 'NONE', 'WORKASPACE' ) );
#73 = LINE ( 'NONE', #65, #2 ) ;
#74 = AXIS2_PLACEMENT_3D ( 'NONE', #118, #49, #26 ) ;
#75 = PERSON_AND_ORGANIZATION_ROLE ( 'creator' ) ;
#76 = MANIFOLD_SOLID_BREP ( 'Cut-Extrude1', #6 ) ;
#77 = FACE_OUTER_BOUND ( 'NONE', #123, .T. ) ;
#78 = PRODUCT_RELATED_PRODUCT_CATEGORY ( 'detail', '', ( #137 ) ) ;
#79 = DIRECTION ( 'NONE',  ( 1.000000000000000000, 0.0000000000000000000, 0.0000000000000000000 ) ) ;
#80 = LOCAL_TIME ( 9, 27, 15.00000000000000000, #40 ) ;
#81 = DIRECTION ( 'NONE',  ( 0.0000000000000000000, 0.0000000000000000000, 1.000000000000000000 ) ) ;
#82 = PERSON ( 'UNSPECIFIED', 'UNSPECIFIED', 'UNSPECIFIED', ('UNSPECIFIED'), ('UNSPECIFIED'), ('UNSPECIFIED') ) ;
#83 = ORIENTED_EDGE ( 'NONE', *, *, #38, .T. ) ;
#84 = CALENDAR_DATE ( 2017, 5, 6 ) ;
#85 = DIRECTION ( 'NONE',  ( 1.000000000000000000, 0.0000000000000000000, 0.0000000000000000000 ) ) ;
#86 = CARTESIAN_POINT ( 'NONE',  ( 6.250000000000000000, 0.0000000000000000000, -3.054542923692198400 ) ) ;
#87 = DIRECTION ( 'NONE',  ( 1.000000000000000000, 0.0000000000000000000, 0.0000000000000000000 ) ) ;
#88 = AXIS2_PLACEMENT_3D ( 'NONE', #104, #136, #79 ) ;
#89 = PLANE ( 'NONE',  #74 ) ;
#90 = LOCAL_TIME ( 9, 27, 15.00000000000000000, #25 ) ;
#91 = ADVANCED_BREP_SHAPE_REPRESENTATION ( 'Web Model 34241_34244', ( #76, #140 ), #72 ) ;
#92 = LOCAL_TIME ( 9, 27, 15.00000000000000000, #169 ) ;
#93 = PERSON_AND_ORGANIZATION_ROLE ( 'creator' ) ;
#94 = PERSON_AND_ORGANIZATION_ROLE ( 'classification_officer' ) ;
#95 = APPROVAL_ROLE ( '' ) ;
#96 = PRODUCT_DEFINITION_FORMATION_WITH_SPECIFIED_SOURCE ( 'ANY', '', #137, .NOT_KNOWN. ) ;
#97 = APPROVAL_DATE_TIME ( #165, #138 ) ;
#98 = CALENDAR_DATE ( 2017, 5, 6 ) ;
#99 = DIRECTION ( 'NONE',  ( 0.0000000000000000000, 0.0000000000000000000, 1.000000000000000000 ) ) ;
#100 = CC_DESIGN_PERSON_AND_ORGANIZATION_ASSIGNMENT ( #17, #75, ( #96 ) ) ;
#101 = CALENDAR_DATE ( 2017, 5, 6 ) ;
#102 = CARTESIAN_POINT ( 'NONE',  ( -6.250000000000000000, 7.654042494670957600E-016, 0.0000000000000000000 ) ) ;
#103 = ORIENTED_EDGE ( 'NONE', *, *, #106, .T. ) ;
#104 = CARTESIAN_POINT ( 'NONE',  ( 0.0000000000000000000, 0.0000000000000000000, -3.109085847384396300 ) ) ;
#105 = DIRECTION ( 'NONE',  ( 1.000000000000000000, 0.0000000000000000000, 0.0000000000000000000 ) ) ;
#106 = EDGE_CURVE ( 'NONE', #157, #28, #145, .T. ) ;
#107 = APPROVAL ( #5, 'UNSPECIFIED' ) ;
#108 = CC_DESIGN_PERSON_AND_ORGANIZATION_ASSIGNMENT ( #54, #18, ( #96 ) ) ;
#109 = VECTOR ( 'NONE', #172, 1000.000000000000000 ) ;
#110 = APPROVAL_ROLE ( '' ) ;
#111 = ADVANCED_FACE ( 'NONE', ( #134 ), #154, .T. ) ;
#112 = APPROVAL_STATUS ( 'not_yet_approved' ) ;
#113 = PERSON_AND_ORGANIZATION_ROLE ( 'design_owner' ) ;
#114 = FACE_OUTER_BOUND ( 'NONE', #150, .T. ) ;
#115 = PRODUCT_DEFINITION ( 'UNKNOWN', '', #96, #53 ) ;
#116 = CARTESIAN_POINT ( 'NONE',  ( 6.250000000000002700, -12.50000000000000000, -3.163628771076594700 ) ) ;
#117 = APPROVAL_DATE_TIME ( #70, #149 ) ;
#118 = CARTESIAN_POINT ( 'NONE',  ( 6.250000000000000000, -6.249999999999997300, 0.0000000000000000000 ) ) ;
#119 = EDGE_CURVE ( 'NONE', #144, #28, #73, .T. ) ;
#120 = CARTESIAN_POINT ( 'NONE',  ( 0.0000000000000000000, 0.0000000000000000000, 0.0000000000000000000 ) ) ;
#121 = DIRECTION ( 'NONE',  ( -0.0000000000000000000, -0.0000000000000000000, 1.000000000000000000 ) ) ;
#122 = CC_DESIGN_PERSON_AND_ORGANIZATION_ASSIGNMENT ( #20, #94, ( #3 ) ) ;
#123 = EDGE_LOOP ( 'NONE', ( #83, #41 ) ) ;
#124 = AXIS2_PLACEMENT_3D ( 'NONE', #143, #64, #85 ) ;
#125 = FACE_OUTER_BOUND ( 'NONE', #16, .T. ) ;
#126 =( BOUNDED_CURVE ( )  B_SPLINE_CURVE ( 3, ( #45, #62, #21, #133 ),
 .UNSPECIFIED., .F., .T. ) 
 B_SPLINE_CURVE_WITH_KNOTS ( ( 4, 4 ),
 ( 4.712388980384689700, 7.853981633974482800 ),
 .UNSPECIFIED. ) 
 CURVE ( )  GEOMETRIC_REPRESENTATION_ITEM ( )  RATIONAL_B_SPLINE_CURVE ( ( 1.000000000000000000, 0.3333333333333333700, 0.3333333333333333700, 1.000000000000000000 ) ) 
 REPRESENTATION_ITEM ( '' )  );
#127 = APPROVAL_DATE_TIME ( #132, #107 ) ;
#128 = CC_DESIGN_APPROVAL ( #138, ( #115 ) ) ;
#129 = DATE_TIME_ROLE ( 'creation_date' ) ;
#130 = EDGE_CURVE ( 'NONE', #175, #157, #39, .T. ) ;
#131 = DIRECTION ( 'NONE',  ( 1.000000000000000000, 0.0000000000000000000, 0.0000000000000000000 ) ) ;
#132 = DATE_AND_TIME ( #101, #80 ) ;
#133 = CARTESIAN_POINT ( 'NONE',  ( 6.250000000000000000, 0.0000000000000000000, -3.054542923692198400 ) ) ;
#134 = FACE_OUTER_BOUND ( 'NONE', #168, .T. ) ;
#135 = DIRECTION ( 'NONE',  ( 0.0000000000000000000, 0.008726535498366848300, -0.9999619230641714200 ) ) ;
#136 = DIRECTION ( 'NONE',  ( -0.0000000000000000000, -0.0000000000000000000, 1.000000000000000000 ) ) ;
#137 = PRODUCT ( 'Web Model 34241_34244', 'Web Model 34241_34244', '', ( #32 ) ) ;
#138 = APPROVAL ( #112, 'UNSPECIFIED' ) ;
#139 = APPROVAL_PERSON_ORGANIZATION ( #33, #138, #110 ) ;
#140 = AXIS2_PLACEMENT_3D ( 'NONE', #24, #99, #131 ) ;
#141 = APPROVAL_ROLE ( '' ) ;
#142 = CARTESIAN_POINT ( 'NONE',  ( -6.250000000000000000, 7.654042494670957600E-016, -3.054542923692198400 ) ) ;
#143 = CARTESIAN_POINT ( 'NONE',  ( 0.0000000000000000000, 0.0000000000000000000, -3.109085847384396300 ) ) ;
#144 = VERTEX_POINT ( 'NONE', #147 ) ;
#145 = CIRCLE ( 'NONE', #66, 6.250000000000000000 ) ;
#146 = CC_DESIGN_DATE_AND_TIME_ASSIGNMENT ( #42, #129, ( #115 ) ) ;
#147 = CARTESIAN_POINT ( 'NONE',  ( -6.250000000000000000, 7.654042494670957600E-016, -3.054542923692198400 ) ) ;
#148 =( NAMED_UNIT ( * ) SI_UNIT ( $, .STERADIAN. ) SOLID_ANGLE_UNIT ( ) );
#149 = APPROVAL ( #15, 'UNSPECIFIED' ) ;
#150 = EDGE_LOOP ( 'NONE', ( #46, #37, #35, #51 ) ) ;
#151 = AXIS2_PLACEMENT_3D ( 'NONE', #160, #135, #11 ) ;
#152 = CIRCLE ( 'NONE', #52, 6.250000000000000000 ) ;
#153 = APPLICATION_CONTEXT ( 'configuration controlled 3d designs of mechanical parts and assemblies' ) ;
#154 = CYLINDRICAL_SURFACE ( 'NONE', #88, 6.250000000000000000 ) ;
#155 = CC_DESIGN_APPROVAL ( #107, ( #96 ) ) ;
#156 = CARTESIAN_POINT ( 'NONE',  ( -6.250000000000000000, -12.50000000000000500, -3.163628771076594700 ) ) ;
#157 = VERTEX_POINT ( 'NONE', #8 ) ;
#158 = PERSON_AND_ORGANIZATION ( #82, #29 ) ;
#159 = DIRECTION ( 'NONE',  ( 0.0000000000000000000, 0.0000000000000000000, 1.000000000000000000 ) ) ;
#160 = CARTESIAN_POINT ( 'NONE',  ( 6.250000000000000000, 6.250000000000000000, -3.000000000000000000 ) ) ;
#161 = PERSON_AND_ORGANIZATION ( #82, #29 ) ;
#162 = APPROVAL_PERSON_ORGANIZATION ( #158, #149, #141 ) ;
#163 = ORIENTED_EDGE ( 'NONE', *, *, #119, .T. ) ;
#164 = DATE_AND_TIME ( #84, #30 ) ;
#165 = DATE_AND_TIME ( #173, #90 ) ;
#166 = COORDINATED_UNIVERSAL_TIME_OFFSET ( 5, 0, .BEHIND. ) ;
#167 = CC_DESIGN_APPROVAL ( #149, ( #3 ) ) ;
#168 = EDGE_LOOP ( 'NONE', ( #23, #163, #47, #12 ) ) ;
#169 = COORDINATED_UNIVERSAL_TIME_OFFSET ( 5, 0, .BEHIND. ) ;
#170 = CC_DESIGN_PERSON_AND_ORGANIZATION_ASSIGNMENT ( #161, #113, ( #137 ) ) ;
#171 = CARTESIAN_POINT ( 'NONE',  ( 0.0000000000000000000, 0.0000000000000000000, 0.0000000000000000000 ) ) ;
#172 = DIRECTION ( 'NONE',  ( -0.0000000000000000000, -0.0000000000000000000, 1.000000000000000000 ) ) ;
#173 = CALENDAR_DATE ( 2017, 5, 6 ) ;
#174 = CARTESIAN_POINT ( 'NONE',  ( 6.250000000000000000, 0.0000000000000000000, -3.054542923692198400 ) ) ;
#175 = VERTEX_POINT ( 'NONE', #174 ) ;
ENDSEC;
END-ISO-10303-21;
