ISO-10303-21;
HEADER;
FILE_DESCRIPTION (( 'STEP AP203' ),
    '1' );
FILE_NAME ('ISP Wedged Parts_16807.step',
    '2020-12-15T21:30:07',
    ( '' ),
    ( '' ),
    'SwSTEP 2.0',
    'SolidWorks 2018',
    '' );
FILE_SCHEMA (( 'CONFIG_CONTROL_DESIGN' ));
ENDSEC;

DATA;
#1 = CC_DESIGN_PERSON_AND_ORGANIZATION_ASSIGNMENT ( #136, #162, ( #105 ) ) ;
#2 = APPROVAL_STATUS ( 'not_yet_approved' ) ;
#3 = MANIFOLD_SOLID_BREP ( 'Cut-Extrude1', #156 ) ;
#4 = CARTESIAN_POINT ( 'NONE',  ( -25.39999999999999858, 0.0000000000000000000, 0.2216624418850832723 ) ) ;
#5 = COORDINATED_UNIVERSAL_TIME_OFFSET ( 5, 0, .BEHIND. ) ;
#6 = APPLICATION_CONTEXT ( 'configuration controlled 3d designs of mechanical parts and assemblies' ) ;
#7 = DIRECTION ( 'NONE',  ( 0.0000000000000000000, -0.9999619230641713097, 0.008726535498366489244 ) ) ;
#8 = LINE ( 'NONE', #53, #54 ) ;
#9 = CALENDAR_DATE ( 2020, 15, 12 ) ;
#10 = CYLINDRICAL_SURFACE ( 'NONE', #26, 25.39999999999999858 ) ;
#11 = CC_DESIGN_APPROVAL ( #165, ( #105 ) ) ;
#12 = DIRECTION ( 'NONE',  ( 1.000000000000000000, 0.0000000000000000000, -0.0000000000000000000 ) ) ;
#13 = CALENDAR_DATE ( 2020, 15, 12 ) ;
#14 = CARTESIAN_POINT ( 'NONE',  ( -25.39999999999999858, 0.0000000000000000000, 0.2216624418850832723 ) ) ;
#15 = CARTESIAN_POINT ( 'NONE',  ( 0.0000000000000000000, 0.0000000000000000000, 6.000000000000000000 ) ) ;
#16 = DIRECTION ( 'NONE',  ( 1.000000000000000000, 0.0000000000000000000, 0.0000000000000000000 ) ) ;
#17 = PRODUCT_DEFINITION ( 'UNKNOWN', '', #105, #52 ) ;
#18 = PERSON_AND_ORGANIZATION_ROLE ( 'creator' ) ;
#19 = MECHANICAL_CONTEXT ( 'NONE', #6, 'mechanical' ) ;
#20 = ORIENTED_EDGE ( 'NONE', *, *, #89, .T. ) ;
#21 = APPLICATION_CONTEXT ( 'configuration controlled 3d designs of mechanical parts and assemblies' ) ;
#22 = FACE_OUTER_BOUND ( 'NONE', #110, .T. ) ;
#23 = PERSON_AND_ORGANIZATION_ROLE ( 'creator' ) ;
#24 = CC_DESIGN_SECURITY_CLASSIFICATION ( #39, ( #105 ) ) ;
#25 = ORIENTED_EDGE ( 'NONE', *, *, #80, .F. ) ;
#26 = AXIS2_PLACEMENT_3D ( 'NONE', #95, #29, #37 ) ;
#27 = CALENDAR_DATE ( 2020, 15, 12 ) ;
#28 = PERSON ( 'UNSPECIFIED', 'UNSPECIFIED', 'UNSPECIFIED', ('UNSPECIFIED'), ('UNSPECIFIED'), ('UNSPECIFIED') ) ;
#29 = DIRECTION ( 'NONE',  ( -0.0000000000000000000, -0.0000000000000000000, -1.000000000000000000 ) ) ;
#30 = EDGE_LOOP ( 'NONE', ( #81, #102, #20, #47 ) ) ;
#31 = EDGE_LOOP ( 'NONE', ( #135, #46 ) ) ;
#32 = PRODUCT_RELATED_PRODUCT_CATEGORY ( 'detail', '', ( #143 ) ) ;
#33 = SECURITY_CLASSIFICATION_LEVEL ( 'unclassified' ) ;
#34 = PERSON_AND_ORGANIZATION ( #28, #67 ) ;
#35 = CARTESIAN_POINT ( 'NONE',  ( -25.39999999999999858, 0.0000000000000000000, 6.000000000000000000 ) ) ;
#36 = CARTESIAN_POINT ( 'NONE',  ( 0.0000000000000000000, 0.0000000000000000000, 6.000000000000000000 ) ) ;
#37 = DIRECTION ( 'NONE',  ( -1.000000000000000000, 0.0000000000000000000, 0.0000000000000000000 ) ) ;
#38 = PERSON_AND_ORGANIZATION ( #28, #67 ) ;
#39 = SECURITY_CLASSIFICATION ( '', '', #33 ) ;
#40 = PRODUCT_DEFINITION_SHAPE ( 'NONE', 'NONE',  #17 ) ;
#41 = DIRECTION ( 'NONE',  ( -0.0000000000000000000, -0.0000000000000000000, -1.000000000000000000 ) ) ;
#42 = APPROVAL_ROLE ( '' ) ;
#43 = CARTESIAN_POINT ( 'NONE',  ( 0.0000000000000000000, 0.0000000000000000000, 6.000000000000000000 ) ) ;
#44 = COORDINATED_UNIVERSAL_TIME_OFFSET ( 5, 0, .BEHIND. ) ;
#45 = CC_DESIGN_PERSON_AND_ORGANIZATION_ASSIGNMENT ( #58, #72, ( #39 ) ) ;
#46 = ORIENTED_EDGE ( 'NONE', *, *, #89, .F. ) ;
#47 = ORIENTED_EDGE ( 'NONE', *, *, #63, .F. ) ;
#48 = AXIS2_PLACEMENT_3D ( 'NONE', #15, #158, #16 ) ;
#49 = CARTESIAN_POINT ( 'NONE',  ( 25.40000000000001990, 50.79999999999999716, -0.2216624418850847988 ) ) ;
#50 = PERSON_AND_ORGANIZATION ( #28, #67 ) ;
#51 = CARTESIAN_POINT ( 'NONE',  ( 25.39999999999999858, 3.110602869834276865E-15, 0.2216624418850832723 ) ) ;
#52 = DESIGN_CONTEXT ( 'detailed design', #21, 'design' ) ;
#53 = CARTESIAN_POINT ( 'NONE',  ( -25.39999999999999858, 0.0000000000000000000, 6.000000000000000000 ) ) ;
#54 = VECTOR ( 'NONE', #99, 1000.000000000000000 ) ;
#55 = EDGE_CURVE ( 'NONE', #107, #96, #90, .T. ) ;
#56 = APPROVAL_ROLE ( '' ) ;
#57 = LOCAL_TIME ( 16, 30, 7.000000000000000000, #115 ) ;
#58 = PERSON_AND_ORGANIZATION ( #28, #67 ) ;
#59 = PLANE ( 'NONE',  #97 ) ;
#60 = LOCAL_TIME ( 16, 30, 7.000000000000000000, #44 ) ;
#61 = CARTESIAN_POINT ( 'NONE',  ( -25.39999999999999858, -25.39999999999999858, 0.4433248837701682099 ) ) ;
#62 = CC_DESIGN_DATE_AND_TIME_ASSIGNMENT ( #148, #139, ( #39 ) ) ;
#63 = EDGE_CURVE ( 'NONE', #96, #131, #8, .T. ) ;
#64 = CALENDAR_DATE ( 2020, 15, 12 ) ;
#65 = CARTESIAN_POINT ( 'NONE',  ( 0.0000000000000000000, 0.0000000000000000000, 0.0000000000000000000 ) ) ;
#66 = PLANE ( 'NONE',  #85 ) ;
#67 = ORGANIZATION ( 'UNSPECIFIED', 'UNSPECIFIED', '' ) ;
#68 = PERSON_AND_ORGANIZATION ( #28, #67 ) ;
#69 = CARTESIAN_POINT ( 'NONE',  ( 25.39999999999999858, 3.110602869834276865E-15, 0.2216624418850832723 ) ) ;
#70 = PERSON_AND_ORGANIZATION_ROLE ( 'design_owner' ) ;
#71 = VECTOR ( 'NONE', #41, 1000.000000000000000 ) ;
#72 = PERSON_AND_ORGANIZATION_ROLE ( 'classification_officer' ) ;
#73 = DATE_AND_TIME ( #144, #134 ) ;
#74 = AXIS2_PLACEMENT_3D ( 'NONE', #43, #116, #130 ) ;
#75 = ORIENTED_EDGE ( 'NONE', *, *, #147, .F. ) ;
#76 = APPROVAL_DATE_TIME ( #73, #165 ) ;
#77 = EDGE_CURVE ( 'NONE', #131, #98, #122, .T. ) ;
#78 = ADVANCED_FACE ( 'NONE', ( #22 ), #66, .T. ) ;
#79 = APPROVAL_STATUS ( 'not_yet_approved' ) ;
#80 = EDGE_CURVE ( 'NONE', #107, #98, #123, .T. ) ;
#81 = ORIENTED_EDGE ( 'NONE', *, *, #55, .F. ) ;
#82 = CARTESIAN_POINT ( 'NONE',  ( -25.39999999999999858, 0.0000000000000000000, 0.2216624418850832723 ) ) ;
#83 = ORIENTED_EDGE ( 'NONE', *, *, #55, .T. ) ;
#84 =( NAMED_UNIT ( * ) SI_UNIT ( $, .STERADIAN. ) SOLID_ANGLE_UNIT ( ) );
#85 = AXIS2_PLACEMENT_3D ( 'NONE', #111, #173, #12 ) ;
#86 = DIRECTION ( 'NONE',  ( 1.000000000000000000, 0.0000000000000000000, 0.0000000000000000000 ) ) ;
#87 = APPROVAL_STATUS ( 'not_yet_approved' ) ;
#88 = UNCERTAINTY_MEASURE_WITH_UNIT (LENGTH_MEASURE( 1.000000000000000082E-05 ), #142, 'distance_accuracy_value', 'NONE');
#89 = EDGE_CURVE ( 'NONE', #98, #131, #174, .T. ) ;
#90 = CIRCLE ( 'NONE', #48, 25.39999999999999858 ) ;
#91 = APPLICATION_PROTOCOL_DEFINITION ( 'international standard', 'config_control_design', 1994, #21 ) ;
#92 = CYLINDRICAL_SURFACE ( 'NONE', #74, 25.39999999999999858 ) ;
#93 = AXIS2_PLACEMENT_3D ( 'NONE', #65, #125, #103 ) ;
#94 = ADVANCED_FACE ( 'NONE', ( #152 ), #10, .T. ) ;
#95 = CARTESIAN_POINT ( 'NONE',  ( 0.0000000000000000000, 0.0000000000000000000, 6.000000000000000000 ) ) ;
#96 = VERTEX_POINT ( 'NONE', #35 ) ;
#97 = AXIS2_PLACEMENT_3D ( 'NONE', #61, #168, #7 ) ;
#98 = VERTEX_POINT ( 'NONE', #119 ) ;
#99 = DIRECTION ( 'NONE',  ( -0.0000000000000000000, -0.0000000000000000000, -1.000000000000000000 ) ) ;
#100 = CC_DESIGN_DATE_AND_TIME_ASSIGNMENT ( #112, #160, ( #17 ) ) ;
#101 = CARTESIAN_POINT ( 'NONE',  ( -25.40000000000000924, -50.79999999999999716, 0.6649873256552514267 ) ) ;
#102 = ORIENTED_EDGE ( 'NONE', *, *, #80, .T. ) ;
#103 = DIRECTION ( 'NONE',  ( 1.000000000000000000, 0.0000000000000000000, 0.0000000000000000000 ) ) ;
#104 = CARTESIAN_POINT ( 'NONE',  ( 25.39999999999999858, -50.79999999999999716, 0.6649873256552515377 ) ) ;
#105 = PRODUCT_DEFINITION_FORMATION_WITH_SPECIFIED_SOURCE ( 'ANY', '', #143, .NOT_KNOWN. ) ;
#106 = COORDINATED_UNIVERSAL_TIME_OFFSET ( 5, 0, .BEHIND. ) ;
#107 = VERTEX_POINT ( 'NONE', #129 ) ;
#108 = ADVANCED_BREP_SHAPE_REPRESENTATION ( 'ISP Wedged Parts_16807', ( #3, #93 ), #118 ) ;
#109 = AXIS2_PLACEMENT_3D ( 'NONE', #36, #164, #86 ) ;
#110 = EDGE_LOOP ( 'NONE', ( #146, #83 ) ) ;
#111 = CARTESIAN_POINT ( 'NONE',  ( 0.0000000000000000000, 0.0000000000000000000, 6.000000000000000000 ) ) ;
#112 = DATE_AND_TIME ( #64, #175 ) ;
#113 = CC_DESIGN_APPROVAL ( #163, ( #39 ) ) ;
#114 = ORIENTED_EDGE ( 'NONE', *, *, #77, .T. ) ;
#115 = COORDINATED_UNIVERSAL_TIME_OFFSET ( 5, 0, .BEHIND. ) ;
#116 = DIRECTION ( 'NONE',  ( -0.0000000000000000000, -0.0000000000000000000, -1.000000000000000000 ) ) ;
#117 = FACE_OUTER_BOUND ( 'NONE', #30, .T. ) ;
#118 =( GEOMETRIC_REPRESENTATION_CONTEXT ( 3 ) GLOBAL_UNCERTAINTY_ASSIGNED_CONTEXT ( ( #88 ) ) GLOBAL_UNIT_ASSIGNED_CONTEXT ( ( #142, #167, #84 ) ) REPRESENTATION_CONTEXT ( 'NONE', 'WORKASPACE' ) );
#119 = CARTESIAN_POINT ( 'NONE',  ( 25.39999999999999858, 3.110602869834276865E-15, 0.2216624418850832723 ) ) ;
#120 = ORIENTED_EDGE ( 'NONE', *, *, #63, .T. ) ;
#121 = ADVANCED_FACE ( 'NONE', ( #154 ), #59, .F. ) ;
#122 =( BOUNDED_CURVE ( )  B_SPLINE_CURVE ( 3, ( #82, #101, #104, #69 ),
 .UNSPECIFIED., .F., .F. ) 
 B_SPLINE_CURVE_WITH_KNOTS ( ( 4, 4 ),
 ( 1.570796326794896558, 4.712388980384689674 ),
 .UNSPECIFIED. ) 
 CURVE ( )  GEOMETRIC_REPRESENTATION_ITEM ( )  RATIONAL_B_SPLINE_CURVE ( ( 1.000000000000000000, 0.3333333333333333703, 0.3333333333333333703, 1.000000000000000000 ) ) 
 REPRESENTATION_ITEM ( '' )  );
#123 = LINE ( 'NONE', #124, #71 ) ;
#124 = CARTESIAN_POINT ( 'NONE',  ( 25.39999999999999858, 3.110602869834276865E-15, 6.000000000000000000 ) ) ;
#125 = DIRECTION ( 'NONE',  ( 0.0000000000000000000, 0.0000000000000000000, 1.000000000000000000 ) ) ;
#126 = CC_DESIGN_APPROVAL ( #157, ( #17 ) ) ;
#127 = EDGE_LOOP ( 'NONE', ( #25, #75, #120, #114 ) ) ;
#128 = CIRCLE ( 'NONE', #109, 25.39999999999999858 ) ;
#129 = CARTESIAN_POINT ( 'NONE',  ( 25.39999999999999858, 3.110602869834276865E-15, 6.000000000000000000 ) ) ;
#130 = DIRECTION ( 'NONE',  ( -1.000000000000000000, 0.0000000000000000000, 0.0000000000000000000 ) ) ;
#131 = VERTEX_POINT ( 'NONE', #14 ) ;
#132 = CARTESIAN_POINT ( 'NONE',  ( -25.40000000000000924, 50.79999999999999716, -0.2216624418850848821 ) ) ;
#133 = ADVANCED_FACE ( 'NONE', ( #117 ), #92, .T. ) ;
#134 = LOCAL_TIME ( 16, 30, 7.000000000000000000, #172 ) ;
#135 = ORIENTED_EDGE ( 'NONE', *, *, #77, .F. ) ;
#136 = PERSON_AND_ORGANIZATION ( #28, #67 ) ;
#137 = APPLICATION_PROTOCOL_DEFINITION ( 'international standard', 'config_control_design', 1994, #6 ) ;
#138 = SHAPE_DEFINITION_REPRESENTATION ( #40, #108 ) ;
#139 = DATE_TIME_ROLE ( 'classification_date' ) ;
#140 = APPROVAL_ROLE ( '' ) ;
#141 = PERSON_AND_ORGANIZATION ( #28, #67 ) ;
#142 =( LENGTH_UNIT ( ) NAMED_UNIT ( * ) SI_UNIT ( .MILLI., .METRE. ) );
#143 = PRODUCT ( 'ISP Wedged Parts_16807', 'ISP Wedged Parts_16807', '', ( #19 ) ) ;
#144 = CALENDAR_DATE ( 2020, 15, 12 ) ;
#145 = CC_DESIGN_PERSON_AND_ORGANIZATION_ASSIGNMENT ( #50, #70, ( #143 ) ) ;
#146 = ORIENTED_EDGE ( 'NONE', *, *, #147, .T. ) ;
#147 = EDGE_CURVE ( 'NONE', #96, #107, #128, .T. ) ;
#148 = DATE_AND_TIME ( #27, #150 ) ;
#149 = APPROVAL_PERSON_ORGANIZATION ( #34, #157, #42 ) ;
#150 = LOCAL_TIME ( 16, 30, 7.000000000000000000, #106 ) ;
#151 = APPROVAL_PERSON_ORGANIZATION ( #38, #163, #56 ) ;
#152 = FACE_OUTER_BOUND ( 'NONE', #127, .T. ) ;
#153 = DATE_AND_TIME ( #9, #57 ) ;
#154 = FACE_OUTER_BOUND ( 'NONE', #31, .T. ) ;
#155 = CC_DESIGN_PERSON_AND_ORGANIZATION_ASSIGNMENT ( #159, #23, ( #17 ) ) ;
#156 = CLOSED_SHELL ( 'NONE', ( #133, #94, #78, #121 ) ) ;
#157 = APPROVAL ( #79, 'UNSPECIFIED' ) ;
#158 = DIRECTION ( 'NONE',  ( 0.0000000000000000000, 0.0000000000000000000, 1.000000000000000000 ) ) ;
#159 = PERSON_AND_ORGANIZATION ( #28, #67 ) ;
#160 = DATE_TIME_ROLE ( 'creation_date' ) ;
#161 = DATE_AND_TIME ( #13, #60 ) ;
#162 = PERSON_AND_ORGANIZATION_ROLE ( 'design_supplier' ) ;
#163 = APPROVAL ( #87, 'UNSPECIFIED' ) ;
#164 = DIRECTION ( 'NONE',  ( 0.0000000000000000000, 0.0000000000000000000, 1.000000000000000000 ) ) ;
#165 = APPROVAL ( #2, 'UNSPECIFIED' ) ;
#166 = APPROVAL_PERSON_ORGANIZATION ( #141, #165, #140 ) ;
#167 =( NAMED_UNIT ( * ) PLANE_ANGLE_UNIT ( ) SI_UNIT ( $, .RADIAN. ) );
#168 = DIRECTION ( 'NONE',  ( 0.0000000000000000000, 0.008726535498366490978, 0.9999619230641714207 ) ) ;
#169 = CC_DESIGN_PERSON_AND_ORGANIZATION_ASSIGNMENT ( #68, #18, ( #105 ) ) ;
#170 = APPROVAL_DATE_TIME ( #161, #157 ) ;
#171 = APPROVAL_DATE_TIME ( #153, #163 ) ;
#172 = COORDINATED_UNIVERSAL_TIME_OFFSET ( 5, 0, .BEHIND. ) ;
#173 = DIRECTION ( 'NONE',  ( 0.0000000000000000000, 0.0000000000000000000, 1.000000000000000000 ) ) ;
#174 =( BOUNDED_CURVE ( )  B_SPLINE_CURVE ( 3, ( #51, #49, #132, #4 ),
 .UNSPECIFIED., .F., .F. ) 
 B_SPLINE_CURVE_WITH_KNOTS ( ( 4, 4 ),
 ( 4.712388980384689674, 7.853981633974482790 ),
 .UNSPECIFIED. ) 
 CURVE ( )  GEOMETRIC_REPRESENTATION_ITEM ( )  RATIONAL_B_SPLINE_CURVE ( ( 1.000000000000000000, 0.3333333333333333703, 0.3333333333333333703, 1.000000000000000000 ) ) 
 REPRESENTATION_ITEM ( '' )  );
#175 = LOCAL_TIME ( 16, 30, 7.000000000000000000, #5 ) ;
ENDSEC;
END-ISO-10303-21;
