ISO-10303-21;
HEADER;
FILE_DESCRIPTION (( 'STEP AP203' ),
    '1' );
FILE_NAME ('Web Model 64095.STEP',
    '2017-01-31T19:05:20',
    ( '' ),
    ( '' ),
    'SwSTEP 2.0',
    'SolidWorks 2016',
    '' );
FILE_SCHEMA (( 'CONFIG_CONTROL_DESIGN' ));
ENDSEC;

DATA;
#1 = APPLICATION_CONTEXT ( 'configuration controlled 3d designs of mechanical parts and assemblies' ) ;
#2 = DIRECTION ( 'NONE',  ( 1.000000000000000000, 0.0000000000000000000, 0.0000000000000000000 ) ) ;
#3 = AXIS2_PLACEMENT_3D ( 'NONE', #128, #154, #102 ) ;
#4 = ORIENTED_EDGE ( 'NONE', *, *, #88, .F. ) ;
#5 = DATE_AND_TIME ( #134, #126 ) ;
#6 = PERSON_AND_ORGANIZATION_ROLE ( 'classification_officer' ) ;
#7 = EDGE_CURVE ( 'NONE', #113, #66, #26, .T. ) ;
#8 =( LENGTH_UNIT ( ) NAMED_UNIT ( * ) SI_UNIT ( .MILLI., .METRE. ) );
#9 = ADVANCED_FACE ( 'NONE', ( #70 ), #27, .T. ) ;
#10 = CARTESIAN_POINT ( 'NONE',  ( 0.0000000000000000000, 0.0000000000000000000, 0.0000000000000000000 ) ) ;
#11 = PLANE ( 'NONE',  #162 ) ;
#12 = CARTESIAN_POINT ( 'NONE',  ( 0.0000000000000000000, 0.0000000000000000000, 0.0000000000000000000 ) ) ;
#13 =( NAMED_UNIT ( * ) PLANE_ANGLE_UNIT ( ) SI_UNIT ( $, .RADIAN. ) );
#14 = UNCERTAINTY_MEASURE_WITH_UNIT (LENGTH_MEASURE( 1.000000000000000100E-005 ), #8, 'distance_accuracy_value', 'NONE');
#15 = EDGE_LOOP ( 'NONE', ( #163, #139 ) ) ;
#16 = PERSON_AND_ORGANIZATION ( #18, #121 ) ;
#17 = AXIS2_PLACEMENT_3D ( 'NONE', #12, #41, #170 ) ;
#18 = PERSON ( 'UNSPECIFIED', 'UNSPECIFIED', 'UNSPECIFIED', ('UNSPECIFIED'), ('UNSPECIFIED'), ('UNSPECIFIED') ) ;
#19 = APPLICATION_PROTOCOL_DEFINITION ( 'international standard', 'config_control_design', 1994, #1 ) ;
#20 = PRODUCT_DEFINITION_FORMATION_WITH_SPECIFIED_SOURCE ( 'ANY', '', #31, .NOT_KNOWN. ) ;
#21 = CALENDAR_DATE ( 2017, 31, 1 ) ;
#22 = CARTESIAN_POINT ( 'NONE',  ( 3.000000000000000000, 3.061616997868383000E-015, -25.00000000000000000 ) ) ;
#23 = CC_DESIGN_PERSON_AND_ORGANIZATION_ASSIGNMENT ( #81, #111, ( #56 ) ) ;
#24 = DIRECTION ( 'NONE',  ( 0.0000000000000000000, 0.0000000000000000000, 1.000000000000000000 ) ) ;
#25 = ORIENTED_EDGE ( 'NONE', *, *, #88, .T. ) ;
#26 = CIRCLE ( 'NONE', #164, 25.00000000000000000 ) ;
#27 = CYLINDRICAL_SURFACE ( 'NONE', #146, 25.00000000000000000 ) ;
#28 = PERSON_AND_ORGANIZATION ( #18, #121 ) ;
#29 = MECHANICAL_CONTEXT ( 'NONE', #165, 'mechanical' ) ;
#30 = APPROVAL ( #124, 'UNSPECIFIED' ) ;
#31 = PRODUCT ( 'Web Model 64095', 'Web Model 64095', '', ( #29 ) ) ;
#32 = DATE_AND_TIME ( #40, #161 ) ;
#33 = APPROVAL_ROLE ( '' ) ;
#34 = DATE_TIME_ROLE ( 'creation_date' ) ;
#35 = CC_DESIGN_PERSON_AND_ORGANIZATION_ASSIGNMENT ( #80, #48, ( #31 ) ) ;
#36 = DIRECTION ( 'NONE',  ( 0.0000000000000000000, 0.0000000000000000000, -1.000000000000000000 ) ) ;
#37 = CARTESIAN_POINT ( 'NONE',  ( 3.000000000000000000, 3.061616997868383000E-015, -25.00000000000000000 ) ) ;
#38 = DIRECTION ( 'NONE',  ( 1.000000000000000000, 0.0000000000000000000, 0.0000000000000000000 ) ) ;
#39 = ORIENTED_EDGE ( 'NONE', *, *, #158, .T. ) ;
#40 = CALENDAR_DATE ( 2017, 31, 1 ) ;
#41 = DIRECTION ( 'NONE',  ( 1.000000000000000000, 0.0000000000000000000, 0.0000000000000000000 ) ) ;
#42 = CC_DESIGN_DATE_AND_TIME_ASSIGNMENT ( #156, #141, ( #138 ) ) ;
#43 = AXIS2_PLACEMENT_3D ( 'NONE', #157, #71, #171 ) ;
#44 = MANIFOLD_SOLID_BREP ( 'Extrude1', #160 ) ;
#45 = VERTEX_POINT ( 'NONE', #116 ) ;
#46 = EDGE_CURVE ( 'NONE', #66, #113, #127, .T. ) ;
#47 = COORDINATED_UNIVERSAL_TIME_OFFSET ( 5, 0, .BEHIND. ) ;
#48 = PERSON_AND_ORGANIZATION_ROLE ( 'design_owner' ) ;
#49 = CARTESIAN_POINT ( 'NONE',  ( 3.000000000000000000, 0.0000000000000000000, 0.0000000000000000000 ) ) ;
#50 = AXIS2_PLACEMENT_3D ( 'NONE', #10, #51, #2 ) ;
#51 = DIRECTION ( 'NONE',  ( 0.0000000000000000000, 0.0000000000000000000, 1.000000000000000000 ) ) ;
#52 =( GEOMETRIC_REPRESENTATION_CONTEXT ( 3 ) GLOBAL_UNCERTAINTY_ASSIGNED_CONTEXT ( ( #14 ) ) GLOBAL_UNIT_ASSIGNED_CONTEXT ( ( #8, #13, #123 ) ) REPRESENTATION_CONTEXT ( 'NONE', 'WORKASPACE' ) );
#53 = CIRCLE ( 'NONE', #43, 25.00000000000000000 ) ;
#54 = COORDINATED_UNIVERSAL_TIME_OFFSET ( 5, 0, .BEHIND. ) ;
#55 = LOCAL_TIME ( 14, 5, 20.00000000000000000, #47 ) ;
#56 = PRODUCT_DEFINITION ( 'UNKNOWN', '', #20, #118 ) ;
#57 = ORIENTED_EDGE ( 'NONE', *, *, #65, .T. ) ;
#58 = DIRECTION ( 'NONE',  ( 0.0000000000000000000, 0.0000000000000000000, -1.000000000000000000 ) ) ;
#59 = VERTEX_POINT ( 'NONE', #86 ) ;
#60 = PRODUCT_RELATED_PRODUCT_CATEGORY ( 'detail', '', ( #31 ) ) ;
#61 = ORIENTED_EDGE ( 'NONE', *, *, #7, .F. ) ;
#62 = APPROVAL ( #63, 'UNSPECIFIED' ) ;
#63 = APPROVAL_STATUS ( 'not_yet_approved' ) ;
#64 = APPROVAL_ROLE ( '' ) ;
#65 = EDGE_CURVE ( 'NONE', #59, #45, #89, .T. ) ;
#66 = VERTEX_POINT ( 'NONE', #143 ) ;
#67 = APPROVAL_PERSON_ORGANIZATION ( #75, #30, #77 ) ;
#68 = DIRECTION ( 'NONE',  ( 0.0000000000000000000, 0.0000000000000000000, -1.000000000000000000 ) ) ;
#69 = DIRECTION ( 'NONE',  ( 1.000000000000000000, 0.0000000000000000000, 0.0000000000000000000 ) ) ;
#70 = FACE_OUTER_BOUND ( 'NONE', #103, .T. ) ;
#71 = DIRECTION ( 'NONE',  ( 1.000000000000000000, 0.0000000000000000000, 0.0000000000000000000 ) ) ;
#72 = COORDINATED_UNIVERSAL_TIME_OFFSET ( 5, 0, .BEHIND. ) ;
#73 = CC_DESIGN_APPROVAL ( #62, ( #56 ) ) ;
#74 = LINE ( 'NONE', #168, #166 ) ;
#75 = PERSON_AND_ORGANIZATION ( #18, #121 ) ;
#76 = APPROVAL_STATUS ( 'not_yet_approved' ) ;
#77 = APPROVAL_ROLE ( '' ) ;
#78 = APPROVAL ( #76, 'UNSPECIFIED' ) ;
#79 = ORIENTED_EDGE ( 'NONE', *, *, #46, .F. ) ;
#80 = PERSON_AND_ORGANIZATION ( #18, #121 ) ;
#81 = PERSON_AND_ORGANIZATION ( #18, #121 ) ;
#82 = PERSON_AND_ORGANIZATION_ROLE ( 'creator' ) ;
#83 = DIRECTION ( 'NONE',  ( -1.000000000000000000, -0.0000000000000000000, -0.0000000000000000000 ) ) ;
#84 = LOCAL_TIME ( 14, 5, 20.00000000000000000, #175 ) ;
#85 = DIRECTION ( 'NONE',  ( -1.000000000000000000, -0.0000000000000000000, -0.0000000000000000000 ) ) ;
#86 = CARTESIAN_POINT ( 'NONE',  ( 0.0000000000000000000, 3.061616997868383000E-015, -25.00000000000000000 ) ) ;
#87 = CARTESIAN_POINT ( 'NONE',  ( 3.000000000000000000, 0.0000000000000000000, 0.0000000000000000000 ) ) ;
#88 = EDGE_CURVE ( 'NONE', #66, #45, #74, .T. ) ;
#89 = CIRCLE ( 'NONE', #120, 25.00000000000000000 ) ;
#90 = DATE_AND_TIME ( #107, #129 ) ;
#91 = FACE_OUTER_BOUND ( 'NONE', #145, .T. ) ;
#92 = PERSON_AND_ORGANIZATION ( #18, #121 ) ;
#93 = EDGE_LOOP ( 'NONE', ( #105, #147 ) ) ;
#94 = APPROVAL_DATE_TIME ( #32, #30 ) ;
#95 = APPROVAL_DATE_TIME ( #5, #78 ) ;
#96 = CYLINDRICAL_SURFACE ( 'NONE', #3, 25.00000000000000000 ) ;
#97 = ADVANCED_FACE ( 'NONE', ( #137 ), #11, .T. ) ;
#98 = CC_DESIGN_PERSON_AND_ORGANIZATION_ASSIGNMENT ( #92, #82, ( #20 ) ) ;
#99 = CARTESIAN_POINT ( 'NONE',  ( 3.000000000000000000, 0.0000000000000000000, 0.0000000000000000000 ) ) ;
#100 = DIRECTION ( 'NONE',  ( 0.0000000000000000000, 0.0000000000000000000, -1.000000000000000000 ) ) ;
#101 = FACE_OUTER_BOUND ( 'NONE', #15, .T. ) ;
#102 = DIRECTION ( 'NONE',  ( 0.0000000000000000000, 0.0000000000000000000, 1.000000000000000000 ) ) ;
#103 = EDGE_LOOP ( 'NONE', ( #61, #136, #57, #4 ) ) ;
#104 = APPROVAL_PERSON_ORGANIZATION ( #169, #62, #33 ) ;
#105 = ORIENTED_EDGE ( 'NONE', *, *, #46, .T. ) ;
#106 = ORIENTED_EDGE ( 'NONE', *, *, #149, .F. ) ;
#107 = CALENDAR_DATE ( 2017, 31, 1 ) ;
#108 = APPLICATION_PROTOCOL_DEFINITION ( 'international standard', 'config_control_design', 1994, #165 ) ;
#109 = SECURITY_CLASSIFICATION_LEVEL ( 'unclassified' ) ;
#110 = AXIS2_PLACEMENT_3D ( 'NONE', #99, #112, #58 ) ;
#111 = PERSON_AND_ORGANIZATION_ROLE ( 'creator' ) ;
#112 = DIRECTION ( 'NONE',  ( 1.000000000000000000, 0.0000000000000000000, 0.0000000000000000000 ) ) ;
#113 = VERTEX_POINT ( 'NONE', #22 ) ;
#114 = APPROVAL_PERSON_ORGANIZATION ( #16, #78, #64 ) ;
#115 = PLANE ( 'NONE',  #17 ) ;
#116 = CARTESIAN_POINT ( 'NONE',  ( 0.0000000000000000000, 0.0000000000000000000, 25.00000000000000000 ) ) ;
#117 = DIRECTION ( 'NONE',  ( -1.000000000000000000, -0.0000000000000000000, -0.0000000000000000000 ) ) ;
#118 = DESIGN_CONTEXT ( 'detailed design', #1, 'design' ) ;
#119 = CALENDAR_DATE ( 2017, 31, 1 ) ;
#120 = AXIS2_PLACEMENT_3D ( 'NONE', #172, #38, #68 ) ;
#121 = ORGANIZATION ( 'UNSPECIFIED', 'UNSPECIFIED', '' ) ;
#122 = APPROVAL_DATE_TIME ( #135, #62 ) ;
#123 =( NAMED_UNIT ( * ) SI_UNIT ( $, .STERADIAN. ) SOLID_ANGLE_UNIT ( ) );
#124 = APPROVAL_STATUS ( 'not_yet_approved' ) ;
#125 = PERSON_AND_ORGANIZATION_ROLE ( 'design_supplier' ) ;
#126 = LOCAL_TIME ( 14, 5, 20.00000000000000000, #72 ) ;
#127 = CIRCLE ( 'NONE', #110, 25.00000000000000000 ) ;
#128 = CARTESIAN_POINT ( 'NONE',  ( 3.000000000000000000, 0.0000000000000000000, 0.0000000000000000000 ) ) ;
#129 = LOCAL_TIME ( 14, 5, 20.00000000000000000, #148 ) ;
#130 = CC_DESIGN_PERSON_AND_ORGANIZATION_ASSIGNMENT ( #28, #125, ( #20 ) ) ;
#131 = LINE ( 'NONE', #37, #174 ) ;
#132 = PERSON_AND_ORGANIZATION ( #18, #121 ) ;
#133 = CC_DESIGN_PERSON_AND_ORGANIZATION_ASSIGNMENT ( #132, #6, ( #138 ) ) ;
#134 = CALENDAR_DATE ( 2017, 31, 1 ) ;
#135 = DATE_AND_TIME ( #21, #84 ) ;
#136 = ORIENTED_EDGE ( 'NONE', *, *, #149, .T. ) ;
#137 = FACE_OUTER_BOUND ( 'NONE', #93, .T. ) ;
#138 = SECURITY_CLASSIFICATION ( '', '', #109 ) ;
#139 = ORIENTED_EDGE ( 'NONE', *, *, #65, .F. ) ;
#140 = PRODUCT_DEFINITION_SHAPE ( 'NONE', 'NONE',  #56 ) ;
#141 = DATE_TIME_ROLE ( 'classification_date' ) ;
#142 = CARTESIAN_POINT ( 'NONE',  ( 3.000000000000000000, 0.0000000000000000000, 0.0000000000000000000 ) ) ;
#143 = CARTESIAN_POINT ( 'NONE',  ( 3.000000000000000000, 0.0000000000000000000, 25.00000000000000000 ) ) ;
#144 = SHAPE_DEFINITION_REPRESENTATION ( #140, #153 ) ;
#145 = EDGE_LOOP ( 'NONE', ( #106, #79, #25, #39 ) ) ;
#146 = AXIS2_PLACEMENT_3D ( 'NONE', #49, #83, #24 ) ;
#147 = ORIENTED_EDGE ( 'NONE', *, *, #7, .T. ) ;
#148 = COORDINATED_UNIVERSAL_TIME_OFFSET ( 5, 0, .BEHIND. ) ;
#149 = EDGE_CURVE ( 'NONE', #113, #59, #131, .T. ) ;
#150 = ADVANCED_FACE ( 'NONE', ( #101 ), #115, .F. ) ;
#151 = DIRECTION ( 'NONE',  ( 1.000000000000000000, 0.0000000000000000000, 0.0000000000000000000 ) ) ;
#152 = ADVANCED_FACE ( 'NONE', ( #91 ), #96, .T. ) ;
#153 = ADVANCED_BREP_SHAPE_REPRESENTATION ( 'Web Model 64095', ( #44, #50 ), #52 ) ;
#154 = DIRECTION ( 'NONE',  ( -1.000000000000000000, -0.0000000000000000000, -0.0000000000000000000 ) ) ;
#155 = CC_DESIGN_DATE_AND_TIME_ASSIGNMENT ( #90, #34, ( #56 ) ) ;
#156 = DATE_AND_TIME ( #119, #55 ) ;
#157 = CARTESIAN_POINT ( 'NONE',  ( 0.0000000000000000000, 0.0000000000000000000, 0.0000000000000000000 ) ) ;
#158 = EDGE_CURVE ( 'NONE', #45, #59, #53, .T. ) ;
#159 = CC_DESIGN_SECURITY_CLASSIFICATION ( #138, ( #20 ) ) ;
#160 = CLOSED_SHELL ( 'NONE', ( #9, #152, #97, #150 ) ) ;
#161 = LOCAL_TIME ( 14, 5, 20.00000000000000000, #54 ) ;
#162 = AXIS2_PLACEMENT_3D ( 'NONE', #87, #69, #100 ) ;
#163 = ORIENTED_EDGE ( 'NONE', *, *, #158, .F. ) ;
#164 = AXIS2_PLACEMENT_3D ( 'NONE', #142, #151, #36 ) ;
#165 = APPLICATION_CONTEXT ( 'configuration controlled 3d designs of mechanical parts and assemblies' ) ;
#166 = VECTOR ( 'NONE', #117, 1000.000000000000000 ) ;
#167 = CC_DESIGN_APPROVAL ( #30, ( #20 ) ) ;
#168 = CARTESIAN_POINT ( 'NONE',  ( 3.000000000000000000, 0.0000000000000000000, 25.00000000000000000 ) ) ;
#169 = PERSON_AND_ORGANIZATION ( #18, #121 ) ;
#170 = DIRECTION ( 'NONE',  ( 0.0000000000000000000, 0.0000000000000000000, -1.000000000000000000 ) ) ;
#171 = DIRECTION ( 'NONE',  ( 0.0000000000000000000, 0.0000000000000000000, -1.000000000000000000 ) ) ;
#172 = CARTESIAN_POINT ( 'NONE',  ( 0.0000000000000000000, 0.0000000000000000000, 0.0000000000000000000 ) ) ;
#173 = CC_DESIGN_APPROVAL ( #78, ( #138 ) ) ;
#174 = VECTOR ( 'NONE', #85, 1000.000000000000000 ) ;
#175 = COORDINATED_UNIVERSAL_TIME_OFFSET ( 5, 0, .BEHIND. ) ;
ENDSEC;
END-ISO-10303-21;
