ISO-10303-21;
HEADER;
FILE_DESCRIPTION (( 'STEP AP203' ),
    '1' );
FILE_NAME ('Web Model 15404_15410.step',
    '2022-03-11T18:21:26',
    ( '' ),
    ( '' ),
    'SwSTEP 2.0',
    'SolidWorks 2021',
    '' );
FILE_SCHEMA (( 'CONFIG_CONTROL_DESIGN' ));
ENDSEC;

DATA;
#1 = DATE_AND_TIME ( #133, #22 ) ;
#2 = APPROVAL ( #162, 'UNSPECIFIED' ) ;
#3 = COORDINATED_UNIVERSAL_TIME_OFFSET ( 5, 0, .BEHIND. ) ;
#4 = PERSON_AND_ORGANIZATION ( #74, #109 ) ;
#5 = MECHANICAL_CONTEXT ( 'NONE', #170, 'mechanical' ) ;
#6 = DATE_AND_TIME ( #121, #125 ) ;
#7 = PRODUCT_RELATED_PRODUCT_CATEGORY ( 'detail', '', ( #126 ) ) ;
#8 = APPROVAL_PERSON_ORGANIZATION ( #103, #108, #66 ) ;
#9 = CARTESIAN_POINT ( 'NONE',  ( -2.500000000000000000, 0.000000000000000000, 0.000000000000000000 ) ) ;
#10 = EDGE_LOOP ( 'NONE', ( #72, #115, #129, #49 ) ) ;
#11 = EDGE_LOOP ( 'NONE', ( #95, #83 ) ) ;
#12 = CARTESIAN_POINT ( 'NONE',  ( -2.500000000000000000, 0.000000000000000000, 25.39999999999999858 ) ) ;
#13 = DIRECTION ( 'NONE',  ( -1.000000000000000000, -0.000000000000000000, -0.000000000000000000 ) ) ;
#14 = AXIS2_PLACEMENT_3D ( 'NONE', #119, #88, #148 ) ;
#15 = APPROVAL_STATUS ( 'not_yet_approved' ) ;
#16 = CALENDAR_DATE ( 2022, 11, 3 ) ;
#17 = APPLICATION_CONTEXT ( 'configuration controlled 3d designs of mechanical parts and assemblies' ) ;
#18 = CALENDAR_DATE ( 2022, 11, 3 ) ;
#19 = CIRCLE ( 'NONE', #53, 25.39999999999999858 ) ;
#20 = CC_DESIGN_PERSON_AND_ORGANIZATION_ASSIGNMENT ( #134, #107, ( #128 ) ) ;
#21 = ADVANCED_BREP_SHAPE_REPRESENTATION ( 'Web Model 15404_15410', ( #81, #14 ), #90 ) ;
#22 = LOCAL_TIME ( 13, 21, 26.00000000000000000, #3 ) ;
#23 = EDGE_LOOP ( 'NONE', ( #172, #152 ) ) ;
#24 = DIRECTION ( 'NONE',  ( 0.000000000000000000, 0.000000000000000000, -1.000000000000000000 ) ) ;
#25 = CARTESIAN_POINT ( 'NONE',  ( 2.500000000000000000, 0.000000000000000000, 0.000000000000000000 ) ) ;
#26 = ADVANCED_FACE ( 'NONE', ( #51 ), #84, .T. ) ;
#27 = PERSON_AND_ORGANIZATION_ROLE ( 'creator' ) ;
#28 = PERSON_AND_ORGANIZATION ( #74, #109 ) ;
#29 = APPROVAL_ROLE ( '' ) ;
#30 = LOCAL_TIME ( 13, 21, 26.00000000000000000, #120 ) ;
#31 = APPROVAL_DATE_TIME ( #91, #117 ) ;
#32 = DESIGN_CONTEXT ( 'detailed design', #17, 'design' ) ;
#33 = DIRECTION ( 'NONE',  ( 0.000000000000000000, 0.000000000000000000, -1.000000000000000000 ) ) ;
#34 = APPLICATION_PROTOCOL_DEFINITION ( 'international standard', 'config_control_design', 1994, #170 ) ;
#35 = VERTEX_POINT ( 'NONE', #60 ) ;
#36 = CARTESIAN_POINT ( 'NONE',  ( 2.500000000000000000, 0.000000000000000000, 25.39999999999999858 ) ) ;
#37 = CARTESIAN_POINT ( 'NONE',  ( 2.500000000000000000, 0.000000000000000000, 0.000000000000000000 ) ) ;
#38 = DATE_TIME_ROLE ( 'classification_date' ) ;
#39 = COORDINATED_UNIVERSAL_TIME_OFFSET ( 5, 0, .BEHIND. ) ;
#40 = PERSON_AND_ORGANIZATION_ROLE ( 'design_owner' ) ;
#41 = APPROVAL_STATUS ( 'not_yet_approved' ) ;
#42 = CC_DESIGN_DATE_AND_TIME_ASSIGNMENT ( #6, #146, ( #136 ) ) ;
#43 = EDGE_CURVE ( 'NONE', #59, #100, #131, .T. ) ;
#44 = DIRECTION ( 'NONE',  ( -1.000000000000000000, -0.000000000000000000, -0.000000000000000000 ) ) ;
#45 = AXIS2_PLACEMENT_3D ( 'NONE', #130, #71, #33 ) ;
#46 = APPROVAL_PERSON_ORGANIZATION ( #105, #2, #135 ) ;
#47 = EDGE_CURVE ( 'NONE', #58, #35, #145, .T. ) ;
#48 = CARTESIAN_POINT ( 'NONE',  ( -2.500000000000000000, 0.000000000000000000, 0.000000000000000000 ) ) ;
#49 = ORIENTED_EDGE ( 'NONE', *, *, #55, .F. ) ;
#50 = CARTESIAN_POINT ( 'NONE',  ( 2.500000000000000000, 0.000000000000000000, 0.000000000000000000 ) ) ;
#51 = FACE_OUTER_BOUND ( 'NONE', #23, .T. ) ;
#52 = PERSON_AND_ORGANIZATION ( #74, #109 ) ;
#53 = AXIS2_PLACEMENT_3D ( 'NONE', #25, #101, #73 ) ;
#54 = APPLICATION_PROTOCOL_DEFINITION ( 'international standard', 'config_control_design', 1994, #17 ) ;
#55 = EDGE_CURVE ( 'NONE', #58, #100, #144, .T. ) ;
#56 = AXIS2_PLACEMENT_3D ( 'NONE', #48, #75, #24 ) ;
#57 = FACE_OUTER_BOUND ( 'NONE', #139, .T. ) ;
#58 = VERTEX_POINT ( 'NONE', #111 ) ;
#59 = VERTEX_POINT ( 'NONE', #86 ) ;
#60 = CARTESIAN_POINT ( 'NONE',  ( 2.500000000000000000, 3.110602869834276865E-15, -25.39999999999999858 ) ) ;
#61 = CARTESIAN_POINT ( 'NONE',  ( 2.500000000000000000, 0.000000000000000000, 0.000000000000000000 ) ) ;
#62 = ORIENTED_EDGE ( 'NONE', *, *, #47, .F. ) ;
#63 = COORDINATED_UNIVERSAL_TIME_OFFSET ( 5, 0, .BEHIND. ) ;
#64 = CIRCLE ( 'NONE', #85, 25.39999999999999858 ) ;
#65 = PRODUCT_DEFINITION_FORMATION_WITH_SPECIFIED_SOURCE ( 'ANY', '', #126, .NOT_KNOWN. ) ;
#66 = APPROVAL_ROLE ( '' ) ;
#67 = SECURITY_CLASSIFICATION_LEVEL ( 'unclassified' ) ;
#68 = VECTOR ( 'NONE', #142, 1000.000000000000000 ) ;
#69 = CC_DESIGN_PERSON_AND_ORGANIZATION_ASSIGNMENT ( #52, #149, ( #136 ) ) ;
#70 =( LENGTH_UNIT ( ) NAMED_UNIT ( * ) SI_UNIT ( .MILLI., .METRE. ) );
#71 = DIRECTION ( 'NONE',  ( 1.000000000000000000, 0.000000000000000000, 0.000000000000000000 ) ) ;
#72 = ORIENTED_EDGE ( 'NONE', *, *, #89, .F. ) ;
#73 = DIRECTION ( 'NONE',  ( 0.000000000000000000, 0.000000000000000000, -1.000000000000000000 ) ) ;
#74 = PERSON ( 'UNSPECIFIED', 'UNSPECIFIED', 'UNSPECIFIED', ('UNSPECIFIED'), ('UNSPECIFIED'), ('UNSPECIFIED') ) ;
#75 = DIRECTION ( 'NONE',  ( 1.000000000000000000, 0.000000000000000000, 0.000000000000000000 ) ) ;
#76 = CC_DESIGN_SECURITY_CLASSIFICATION ( #128, ( #65 ) ) ;
#77 = PERSON_AND_ORGANIZATION_ROLE ( 'design_supplier' ) ;
#78 = CC_DESIGN_PERSON_AND_ORGANIZATION_ASSIGNMENT ( #79, #77, ( #65 ) ) ;
#79 = PERSON_AND_ORGANIZATION ( #74, #109 ) ;
#80 = APPROVAL_DATE_TIME ( #92, #2 ) ;
#81 = MANIFOLD_SOLID_BREP ( 'Boss-Extrude1', #104 ) ;
#82 = FACE_OUTER_BOUND ( 'NONE', #11, .T. ) ;
#83 = ORIENTED_EDGE ( 'NONE', *, *, #43, .F. ) ;
#84 = PLANE ( 'NONE',  #96 ) ;
#85 = AXIS2_PLACEMENT_3D ( 'NONE', #154, #112, #171 ) ;
#86 = CARTESIAN_POINT ( 'NONE',  ( -2.500000000000000000, 3.110602869834276865E-15, -25.39999999999999858 ) ) ;
#87 = DIRECTION ( 'NONE',  ( 0.000000000000000000, 0.000000000000000000, -1.000000000000000000 ) ) ;
#88 = DIRECTION ( 'NONE',  ( 0.000000000000000000, 0.000000000000000000, 1.000000000000000000 ) ) ;
#89 = EDGE_CURVE ( 'NONE', #35, #58, #19, .T. ) ;
#90 =( GEOMETRIC_REPRESENTATION_CONTEXT ( 3 ) GLOBAL_UNCERTAINTY_ASSIGNED_CONTEXT ( ( #94 ) ) GLOBAL_UNIT_ASSIGNED_CONTEXT ( ( #70, #155, #138 ) ) REPRESENTATION_CONTEXT ( 'NONE', 'WORKASPACE' ) );
#91 = DATE_AND_TIME ( #16, #124 ) ;
#92 = DATE_AND_TIME ( #18, #157 ) ;
#93 = SHAPE_DEFINITION_REPRESENTATION ( #169, #21 ) ;
#94 = UNCERTAINTY_MEASURE_WITH_UNIT (LENGTH_MEASURE( 1.000000000000000082E-05 ), #70, 'distance_accuracy_value', 'NONE');
#95 = ORIENTED_EDGE ( 'NONE', *, *, #123, .F. ) ;
#96 = AXIS2_PLACEMENT_3D ( 'NONE', #61, #174, #87 ) ;
#97 = DIRECTION ( 'NONE',  ( -1.000000000000000000, -0.000000000000000000, -0.000000000000000000 ) ) ;
#98 = DIRECTION ( 'NONE',  ( 0.000000000000000000, 0.000000000000000000, -1.000000000000000000 ) ) ;
#99 = LINE ( 'NONE', #158, #164 ) ;
#100 = VERTEX_POINT ( 'NONE', #12 ) ;
#101 = DIRECTION ( 'NONE',  ( 1.000000000000000000, 0.000000000000000000, 0.000000000000000000 ) ) ;
#102 = ADVANCED_FACE ( 'NONE', ( #160 ), #143, .T. ) ;
#103 = PERSON_AND_ORGANIZATION ( #74, #109 ) ;
#104 = CLOSED_SHELL ( 'NONE', ( #102, #140, #26, #153 ) ) ;
#105 = PERSON_AND_ORGANIZATION ( #74, #109 ) ;
#106 = COORDINATED_UNIVERSAL_TIME_OFFSET ( 5, 0, .BEHIND. ) ;
#107 = PERSON_AND_ORGANIZATION_ROLE ( 'classification_officer' ) ;
#108 = APPROVAL ( #15, 'UNSPECIFIED' ) ;
#109 = ORGANIZATION ( 'UNSPECIFIED', 'UNSPECIFIED', '' ) ;
#110 = CC_DESIGN_PERSON_AND_ORGANIZATION_ASSIGNMENT ( #28, #27, ( #65 ) ) ;
#111 = CARTESIAN_POINT ( 'NONE',  ( 2.500000000000000000, 0.000000000000000000, 25.39999999999999858 ) ) ;
#112 = DIRECTION ( 'NONE',  ( 1.000000000000000000, 0.000000000000000000, 0.000000000000000000 ) ) ;
#113 = DIRECTION ( 'NONE',  ( 1.000000000000000000, 0.000000000000000000, 0.000000000000000000 ) ) ;
#114 = DIRECTION ( 'NONE',  ( 0.000000000000000000, 0.000000000000000000, 1.000000000000000000 ) ) ;
#115 = ORIENTED_EDGE ( 'NONE', *, *, #151, .T. ) ;
#116 = AXIS2_PLACEMENT_3D ( 'NONE', #9, #113, #98 ) ;
#117 = APPROVAL ( #41, 'UNSPECIFIED' ) ;
#118 = DATE_AND_TIME ( #163, #30 ) ;
#119 = CARTESIAN_POINT ( 'NONE',  ( 0.000000000000000000, 0.000000000000000000, 0.000000000000000000 ) ) ;
#120 = COORDINATED_UNIVERSAL_TIME_OFFSET ( 5, 0, .BEHIND. ) ;
#121 = CALENDAR_DATE ( 2022, 11, 3 ) ;
#122 = APPROVAL_PERSON_ORGANIZATION ( #150, #117, #29 ) ;
#123 = EDGE_CURVE ( 'NONE', #100, #59, #64, .T. ) ;
#124 = LOCAL_TIME ( 13, 21, 26.00000000000000000, #39 ) ;
#125 = LOCAL_TIME ( 13, 21, 26.00000000000000000, #106 ) ;
#126 = PRODUCT ( 'Web Model 15404_15410', 'Web Model 15404_15410', '', ( #5 ) ) ;
#127 = ORIENTED_EDGE ( 'NONE', *, *, #123, .T. ) ;
#128 = SECURITY_CLASSIFICATION ( '', '', #67 ) ;
#129 = ORIENTED_EDGE ( 'NONE', *, *, #43, .T. ) ;
#130 = CARTESIAN_POINT ( 'NONE',  ( 2.500000000000000000, 0.000000000000000000, 0.000000000000000000 ) ) ;
#131 = CIRCLE ( 'NONE', #56, 25.39999999999999858 ) ;
#132 = CC_DESIGN_APPROVAL ( #2, ( #65 ) ) ;
#133 = CALENDAR_DATE ( 2022, 11, 3 ) ;
#134 = PERSON_AND_ORGANIZATION ( #74, #109 ) ;
#135 = APPROVAL_ROLE ( '' ) ;
#136 = PRODUCT_DEFINITION ( 'UNKNOWN', '', #65, #32 ) ;
#137 = PLANE ( 'NONE',  #116 ) ;
#138 =( NAMED_UNIT ( * ) SI_UNIT ( $, .STERADIAN. ) SOLID_ANGLE_UNIT ( ) );
#139 = EDGE_LOOP ( 'NONE', ( #159, #62, #166, #127 ) ) ;
#140 = ADVANCED_FACE ( 'NONE', ( #57 ), #168, .T. ) ;
#141 = AXIS2_PLACEMENT_3D ( 'NONE', #50, #44, #156 ) ;
#142 = DIRECTION ( 'NONE',  ( -1.000000000000000000, -0.000000000000000000, -0.000000000000000000 ) ) ;
#143 = CYLINDRICAL_SURFACE ( 'NONE', #165, 25.39999999999999858 ) ;
#144 = LINE ( 'NONE', #36, #68 ) ;
#145 = CIRCLE ( 'NONE', #45, 25.39999999999999858 ) ;
#146 = DATE_TIME_ROLE ( 'creation_date' ) ;
#147 = CC_DESIGN_APPROVAL ( #108, ( #128 ) ) ;
#148 = DIRECTION ( 'NONE',  ( 1.000000000000000000, 0.000000000000000000, 0.000000000000000000 ) ) ;
#149 = PERSON_AND_ORGANIZATION_ROLE ( 'creator' ) ;
#150 = PERSON_AND_ORGANIZATION ( #74, #109 ) ;
#151 = EDGE_CURVE ( 'NONE', #35, #59, #99, .T. ) ;
#152 = ORIENTED_EDGE ( 'NONE', *, *, #89, .T. ) ;
#153 = ADVANCED_FACE ( 'NONE', ( #82 ), #137, .F. ) ;
#154 = CARTESIAN_POINT ( 'NONE',  ( -2.500000000000000000, 0.000000000000000000, 0.000000000000000000 ) ) ;
#155 =( NAMED_UNIT ( * ) PLANE_ANGLE_UNIT ( ) SI_UNIT ( $, .RADIAN. ) );
#156 = DIRECTION ( 'NONE',  ( 0.000000000000000000, 0.000000000000000000, 1.000000000000000000 ) ) ;
#157 = LOCAL_TIME ( 13, 21, 26.00000000000000000, #63 ) ;
#158 = CARTESIAN_POINT ( 'NONE',  ( 2.500000000000000000, 3.110602869834276865E-15, -25.39999999999999858 ) ) ;
#159 = ORIENTED_EDGE ( 'NONE', *, *, #151, .F. ) ;
#160 = FACE_OUTER_BOUND ( 'NONE', #10, .T. ) ;
#161 = APPROVAL_DATE_TIME ( #118, #108 ) ;
#162 = APPROVAL_STATUS ( 'not_yet_approved' ) ;
#163 = CALENDAR_DATE ( 2022, 11, 3 ) ;
#164 = VECTOR ( 'NONE', #97, 1000.000000000000000 ) ;
#165 = AXIS2_PLACEMENT_3D ( 'NONE', #37, #13, #114 ) ;
#166 = ORIENTED_EDGE ( 'NONE', *, *, #55, .T. ) ;
#167 = CC_DESIGN_PERSON_AND_ORGANIZATION_ASSIGNMENT ( #4, #40, ( #126 ) ) ;
#168 = CYLINDRICAL_SURFACE ( 'NONE', #141, 25.39999999999999858 ) ;
#169 = PRODUCT_DEFINITION_SHAPE ( 'NONE', 'NONE',  #136 ) ;
#170 = APPLICATION_CONTEXT ( 'configuration controlled 3d designs of mechanical parts and assemblies' ) ;
#171 = DIRECTION ( 'NONE',  ( 0.000000000000000000, 0.000000000000000000, -1.000000000000000000 ) ) ;
#172 = ORIENTED_EDGE ( 'NONE', *, *, #47, .T. ) ;
#173 = CC_DESIGN_APPROVAL ( #117, ( #136 ) ) ;
#174 = DIRECTION ( 'NONE',  ( 1.000000000000000000, 0.000000000000000000, 0.000000000000000000 ) ) ;
#175 = CC_DESIGN_DATE_AND_TIME_ASSIGNMENT ( #1, #38, ( #128 ) ) ;
ENDSEC;
END-ISO-10303-21;
