ISO-10303-21;
HEADER;
FILE_DESCRIPTION (( 'STEP AP203' ),
    '1' );
FILE_NAME ('Web Model 45581_13301.step',
    '2020-11-03T21:52:31',
    ( '' ),
    ( '' ),
    'SwSTEP 2.0',
    'SolidWorks 2018',
    '' );
FILE_SCHEMA (( 'CONFIG_CONTROL_DESIGN' ));
ENDSEC;

DATA;
#1 = AXIS2_PLACEMENT_3D ( 'NONE', #138, #39, #48 ) ;
#2 = ORIENTED_EDGE ( 'NONE', *, *, #94, .T. ) ;
#3 = COORDINATED_UNIVERSAL_TIME_OFFSET ( 5, 0, .BEHIND. ) ;
#4 = CARTESIAN_POINT ( 'NONE',  ( 0.0000000000000000000, 0.0000000000000000000, -4.000000000000000000 ) ) ;
#5 = DIRECTION ( 'NONE',  ( 0.0000000000000000000, 0.0000000000000000000, 1.000000000000000000 ) ) ;
#6 = CARTESIAN_POINT ( 'NONE',  ( 20.00000000000000000, 0.0000000000000000000, -4.000000000000000000 ) ) ;
#7 = ORIENTED_EDGE ( 'NONE', *, *, #45, .F. ) ;
#8 = ADVANCED_BREP_SHAPE_REPRESENTATION ( 'Web Model 45581_13301', ( #157, #172 ), #159 ) ;
#9 = DIRECTION ( 'NONE',  ( 1.000000000000000000, 0.0000000000000000000, -0.0000000000000000000 ) ) ;
#10 = DIRECTION ( 'NONE',  ( 0.0000000000000000000, 0.0000000000000000000, 1.000000000000000000 ) ) ;
#11 = PERSON_AND_ORGANIZATION ( #130, #33 ) ;
#12 = ORIENTED_EDGE ( 'NONE', *, *, #32, .F. ) ;
#13 = PERSON_AND_ORGANIZATION_ROLE ( 'design_owner' ) ;
#14 = MECHANICAL_CONTEXT ( 'NONE', #143, 'mechanical' ) ;
#15 = LINE ( 'NONE', #6, #77 ) ;
#16 = ADVANCED_FACE ( 'NONE', ( #115 ), #109, .T. ) ;
#17 = DESIGN_CONTEXT ( 'detailed design', #101, 'design' ) ;
#18 = PERSON_AND_ORGANIZATION ( #130, #33 ) ;
#19 = ORIENTED_EDGE ( 'NONE', *, *, #32, .T. ) ;
#20 = CIRCLE ( 'NONE', #73, 20.00000000000000000 ) ;
#21 = EDGE_CURVE ( 'NONE', #156, #175, #20, .T. ) ;
#22 = CARTESIAN_POINT ( 'NONE',  ( 0.0000000000000000000, 0.0000000000000000000, 0.0000000000000000000 ) ) ;
#23 = CARTESIAN_POINT ( 'NONE',  ( 20.00000000000000000, 0.0000000000000000000, -4.000000000000000000 ) ) ;
#24 = CALENDAR_DATE ( 2020, 3, 11 ) ;
#25 = ORIENTED_EDGE ( 'NONE', *, *, #45, .T. ) ;
#26 = DIRECTION ( 'NONE',  ( 0.0000000000000000000, 0.0000000000000000000, 1.000000000000000000 ) ) ;
#27 = APPROVAL_STATUS ( 'not_yet_approved' ) ;
#28 = SHAPE_DEFINITION_REPRESENTATION ( #161, #8 ) ;
#29 = APPLICATION_PROTOCOL_DEFINITION ( 'international standard', 'config_control_design', 1994, #143 ) ;
#30 = PERSON_AND_ORGANIZATION ( #130, #33 ) ;
#31 = EDGE_LOOP ( 'NONE', ( #2, #19 ) ) ;
#32 = EDGE_CURVE ( 'NONE', #152, #92, #46, .T. ) ;
#33 = ORGANIZATION ( 'UNSPECIFIED', 'UNSPECIFIED', '' ) ;
#34 = CALENDAR_DATE ( 2020, 3, 11 ) ;
#35 = ORIENTED_EDGE ( 'NONE', *, *, #21, .T. ) ;
#36 = CARTESIAN_POINT ( 'NONE',  ( 0.0000000000000000000, 0.0000000000000000000, -4.000000000000000000 ) ) ;
#37 = EDGE_CURVE ( 'NONE', #175, #92, #15, .T. ) ;
#38 = DIRECTION ( 'NONE',  ( 1.000000000000000000, 0.0000000000000000000, 0.0000000000000000000 ) ) ;
#39 = DIRECTION ( 'NONE',  ( 0.0000000000000000000, 0.0000000000000000000, 1.000000000000000000 ) ) ;
#40 =( NAMED_UNIT ( * ) SI_UNIT ( $, .STERADIAN. ) SOLID_ANGLE_UNIT ( ) );
#41 = APPROVAL_ROLE ( '' ) ;
#42 = APPROVAL_STATUS ( 'not_yet_approved' ) ;
#43 = ADVANCED_FACE ( 'NONE', ( #139 ), #49, .T. ) ;
#44 = LOCAL_TIME ( 16, 52, 31.00000000000000000, #126 ) ;
#45 = EDGE_CURVE ( 'NONE', #175, #156, #80, .T. ) ;
#46 = CIRCLE ( 'NONE', #103, 20.00000000000000000 ) ;
#47 = DIRECTION ( 'NONE',  ( 0.0000000000000000000, 0.0000000000000000000, 1.000000000000000000 ) ) ;
#48 = DIRECTION ( 'NONE',  ( 1.000000000000000000, 0.0000000000000000000, 0.0000000000000000000 ) ) ;
#49 = PLANE ( 'NONE',  #63 ) ;
#50 = PRODUCT_DEFINITION ( 'UNKNOWN', '', #114, #17 ) ;
#51 =( LENGTH_UNIT ( ) NAMED_UNIT ( * ) SI_UNIT ( .MILLI., .METRE. ) );
#52 = PERSON_AND_ORGANIZATION_ROLE ( 'creator' ) ;
#53 = APPROVAL ( #27, 'UNSPECIFIED' ) ;
#54 = ORIENTED_EDGE ( 'NONE', *, *, #94, .F. ) ;
#55 = ADVANCED_FACE ( 'NONE', ( #104 ), #142, .T. ) ;
#56 = LINE ( 'NONE', #122, #141 ) ;
#57 = CC_DESIGN_PERSON_AND_ORGANIZATION_ASSIGNMENT ( #64, #125, ( #50 ) ) ;
#58 = CALENDAR_DATE ( 2020, 3, 11 ) ;
#59 = DIRECTION ( 'NONE',  ( 1.000000000000000000, 0.0000000000000000000, 0.0000000000000000000 ) ) ;
#60 = DIRECTION ( 'NONE',  ( 0.0000000000000000000, 0.0000000000000000000, 1.000000000000000000 ) ) ;
#61 = PERSON_AND_ORGANIZATION ( #130, #33 ) ;
#62 = DATE_TIME_ROLE ( 'creation_date' ) ;
#63 = AXIS2_PLACEMENT_3D ( 'NONE', #22, #5, #9 ) ;
#64 = PERSON_AND_ORGANIZATION ( #130, #33 ) ;
#65 = DATE_TIME_ROLE ( 'classification_date' ) ;
#66 = CLOSED_SHELL ( 'NONE', ( #16, #55, #113, #43 ) ) ;
#67 = CC_DESIGN_PERSON_AND_ORGANIZATION_ASSIGNMENT ( #106, #52, ( #114 ) ) ;
#68 = APPROVAL_DATE_TIME ( #171, #53 ) ;
#69 = ORIENTED_EDGE ( 'NONE', *, *, #37, .T. ) ;
#70 = UNCERTAINTY_MEASURE_WITH_UNIT (LENGTH_MEASURE( 1.000000000000000082E-05 ), #51, 'distance_accuracy_value', 'NONE');
#71 = CC_DESIGN_PERSON_AND_ORGANIZATION_ASSIGNMENT ( #91, #100, ( #114 ) ) ;
#72 = CARTESIAN_POINT ( 'NONE',  ( 0.0000000000000000000, 0.0000000000000000000, 0.0000000000000000000 ) ) ;
#73 = AXIS2_PLACEMENT_3D ( 'NONE', #119, #153, #167 ) ;
#74 = APPROVAL_ROLE ( '' ) ;
#75 = APPROVAL_ROLE ( '' ) ;
#76 = AXIS2_PLACEMENT_3D ( 'NONE', #4, #134, #83 ) ;
#77 = VECTOR ( 'NONE', #47, 1000.000000000000000 ) ;
#78 = APPROVAL_PERSON_ORGANIZATION ( #11, #53, #41 ) ;
#79 = SECURITY_CLASSIFICATION ( '', '', #88 ) ;
#80 = CIRCLE ( 'NONE', #1, 20.00000000000000000 ) ;
#81 = CC_DESIGN_PERSON_AND_ORGANIZATION_ASSIGNMENT ( #30, #124, ( #79 ) ) ;
#82 = CIRCLE ( 'NONE', #151, 20.00000000000000000 ) ;
#83 = DIRECTION ( 'NONE',  ( 1.000000000000000000, 0.0000000000000000000, 0.0000000000000000000 ) ) ;
#84 = ORIENTED_EDGE ( 'NONE', *, *, #154, .T. ) ;
#85 = CC_DESIGN_APPROVAL ( #53, ( #50 ) ) ;
#86 = CALENDAR_DATE ( 2020, 3, 11 ) ;
#87 =( NAMED_UNIT ( * ) PLANE_ANGLE_UNIT ( ) SI_UNIT ( $, .RADIAN. ) );
#88 = SECURITY_CLASSIFICATION_LEVEL ( 'unclassified' ) ;
#89 = LOCAL_TIME ( 16, 52, 31.00000000000000000, #120 ) ;
#90 = AXIS2_PLACEMENT_3D ( 'NONE', #36, #107, #137 ) ;
#91 = PERSON_AND_ORGANIZATION ( #130, #33 ) ;
#92 = VERTEX_POINT ( 'NONE', #136 ) ;
#93 = PRODUCT_RELATED_PRODUCT_CATEGORY ( 'detail', '', ( #117 ) ) ;
#94 = EDGE_CURVE ( 'NONE', #92, #152, #82, .T. ) ;
#95 = DATE_AND_TIME ( #34, #99 ) ;
#96 = DIRECTION ( 'NONE',  ( 0.0000000000000000000, 0.0000000000000000000, 1.000000000000000000 ) ) ;
#97 = CARTESIAN_POINT ( 'NONE',  ( -20.00000000000000000, 2.449293598294706513E-15, 0.0000000000000000000 ) ) ;
#98 = CARTESIAN_POINT ( 'NONE',  ( 0.0000000000000000000, 0.0000000000000000000, 0.0000000000000000000 ) ) ;
#99 = LOCAL_TIME ( 16, 52, 31.00000000000000000, #146 ) ;
#100 = PERSON_AND_ORGANIZATION_ROLE ( 'design_supplier' ) ;
#101 = APPLICATION_CONTEXT ( 'configuration controlled 3d designs of mechanical parts and assemblies' ) ;
#102 = FACE_OUTER_BOUND ( 'NONE', #147, .T. ) ;
#103 = AXIS2_PLACEMENT_3D ( 'NONE', #108, #96, #38 ) ;
#104 = FACE_OUTER_BOUND ( 'NONE', #116, .T. ) ;
#105 = CC_DESIGN_DATE_AND_TIME_ASSIGNMENT ( #165, #65, ( #79 ) ) ;
#106 = PERSON_AND_ORGANIZATION ( #130, #33 ) ;
#107 = DIRECTION ( 'NONE',  ( 0.0000000000000000000, 0.0000000000000000000, 1.000000000000000000 ) ) ;
#108 = CARTESIAN_POINT ( 'NONE',  ( 0.0000000000000000000, 0.0000000000000000000, 0.0000000000000000000 ) ) ;
#109 = CYLINDRICAL_SURFACE ( 'NONE', #76, 20.00000000000000000 ) ;
#110 = CARTESIAN_POINT ( 'NONE',  ( 0.0000000000000000000, 0.0000000000000000000, -4.000000000000000000 ) ) ;
#111 = APPROVAL_STATUS ( 'not_yet_approved' ) ;
#112 = DATE_AND_TIME ( #24, #163 ) ;
#113 = ADVANCED_FACE ( 'NONE', ( #102 ), #118, .F. ) ;
#114 = PRODUCT_DEFINITION_FORMATION_WITH_SPECIFIED_SOURCE ( 'ANY', '', #117, .NOT_KNOWN. ) ;
#115 = FACE_OUTER_BOUND ( 'NONE', #164, .T. ) ;
#116 = EDGE_LOOP ( 'NONE', ( #144, #35, #69, #12 ) ) ;
#117 = PRODUCT ( 'Web Model 45581_13301', 'Web Model 45581_13301', '', ( #14 ) ) ;
#118 = PLANE ( 'NONE',  #90 ) ;
#119 = CARTESIAN_POINT ( 'NONE',  ( 0.0000000000000000000, 0.0000000000000000000, -4.000000000000000000 ) ) ;
#120 = COORDINATED_UNIVERSAL_TIME_OFFSET ( 5, 0, .BEHIND. ) ;
#121 = ORIENTED_EDGE ( 'NONE', *, *, #21, .F. ) ;
#122 = CARTESIAN_POINT ( 'NONE',  ( -20.00000000000000000, 2.449293598294706513E-15, -4.000000000000000000 ) ) ;
#123 = APPROVAL_PERSON_ORGANIZATION ( #18, #166, #75 ) ;
#124 = PERSON_AND_ORGANIZATION_ROLE ( 'classification_officer' ) ;
#125 = PERSON_AND_ORGANIZATION_ROLE ( 'creator' ) ;
#126 = COORDINATED_UNIVERSAL_TIME_OFFSET ( 5, 0, .BEHIND. ) ;
#127 = ORIENTED_EDGE ( 'NONE', *, *, #37, .F. ) ;
#128 = CC_DESIGN_SECURITY_CLASSIFICATION ( #79, ( #114 ) ) ;
#129 = COORDINATED_UNIVERSAL_TIME_OFFSET ( 5, 0, .BEHIND. ) ;
#130 = PERSON ( 'UNSPECIFIED', 'UNSPECIFIED', 'UNSPECIFIED', ('UNSPECIFIED'), ('UNSPECIFIED'), ('UNSPECIFIED') ) ;
#131 = APPROVAL ( #42, 'UNSPECIFIED' ) ;
#132 = LOCAL_TIME ( 16, 52, 31.00000000000000000, #3 ) ;
#133 = CC_DESIGN_PERSON_AND_ORGANIZATION_ASSIGNMENT ( #174, #13, ( #117 ) ) ;
#134 = DIRECTION ( 'NONE',  ( 0.0000000000000000000, 0.0000000000000000000, 1.000000000000000000 ) ) ;
#135 = CALENDAR_DATE ( 2020, 3, 11 ) ;
#136 = CARTESIAN_POINT ( 'NONE',  ( 20.00000000000000000, 0.0000000000000000000, 0.0000000000000000000 ) ) ;
#137 = DIRECTION ( 'NONE',  ( 1.000000000000000000, 0.0000000000000000000, -0.0000000000000000000 ) ) ;
#138 = CARTESIAN_POINT ( 'NONE',  ( 0.0000000000000000000, 0.0000000000000000000, -4.000000000000000000 ) ) ;
#139 = FACE_OUTER_BOUND ( 'NONE', #31, .T. ) ;
#140 = APPLICATION_PROTOCOL_DEFINITION ( 'international standard', 'config_control_design', 1994, #101 ) ;
#141 = VECTOR ( 'NONE', #149, 1000.000000000000000 ) ;
#142 = CYLINDRICAL_SURFACE ( 'NONE', #173, 20.00000000000000000 ) ;
#143 = APPLICATION_CONTEXT ( 'configuration controlled 3d designs of mechanical parts and assemblies' ) ;
#144 = ORIENTED_EDGE ( 'NONE', *, *, #154, .F. ) ;
#145 = CC_DESIGN_APPROVAL ( #166, ( #79 ) ) ;
#146 = COORDINATED_UNIVERSAL_TIME_OFFSET ( 5, 0, .BEHIND. ) ;
#147 = EDGE_LOOP ( 'NONE', ( #7, #121 ) ) ;
#148 = APPROVAL_DATE_TIME ( #158, #166 ) ;
#149 = DIRECTION ( 'NONE',  ( 0.0000000000000000000, 0.0000000000000000000, 1.000000000000000000 ) ) ;
#150 = DIRECTION ( 'NONE',  ( 1.000000000000000000, 0.0000000000000000000, 0.0000000000000000000 ) ) ;
#151 = AXIS2_PLACEMENT_3D ( 'NONE', #98, #26, #59 ) ;
#152 = VERTEX_POINT ( 'NONE', #97 ) ;
#153 = DIRECTION ( 'NONE',  ( 0.0000000000000000000, 0.0000000000000000000, 1.000000000000000000 ) ) ;
#154 = EDGE_CURVE ( 'NONE', #156, #152, #56, .T. ) ;
#155 = APPROVAL_DATE_TIME ( #95, #131 ) ;
#156 = VERTEX_POINT ( 'NONE', #168 ) ;
#157 = MANIFOLD_SOLID_BREP ( 'Extrude1', #66 ) ;
#158 = DATE_AND_TIME ( #58, #89 ) ;
#159 =( GEOMETRIC_REPRESENTATION_CONTEXT ( 3 ) GLOBAL_UNCERTAINTY_ASSIGNED_CONTEXT ( ( #70 ) ) GLOBAL_UNIT_ASSIGNED_CONTEXT ( ( #51, #87, #40 ) ) REPRESENTATION_CONTEXT ( 'NONE', 'WORKASPACE' ) );
#160 = APPROVAL_PERSON_ORGANIZATION ( #61, #131, #74 ) ;
#161 = PRODUCT_DEFINITION_SHAPE ( 'NONE', 'NONE',  #50 ) ;
#162 = CC_DESIGN_APPROVAL ( #131, ( #114 ) ) ;
#163 = LOCAL_TIME ( 16, 52, 31.00000000000000000, #129 ) ;
#164 = EDGE_LOOP ( 'NONE', ( #25, #84, #54, #127 ) ) ;
#165 = DATE_AND_TIME ( #86, #44 ) ;
#166 = APPROVAL ( #111, 'UNSPECIFIED' ) ;
#167 = DIRECTION ( 'NONE',  ( 1.000000000000000000, 0.0000000000000000000, 0.0000000000000000000 ) ) ;
#168 = CARTESIAN_POINT ( 'NONE',  ( -20.00000000000000000, 2.449293598294706513E-15, -4.000000000000000000 ) ) ;
#169 = CC_DESIGN_DATE_AND_TIME_ASSIGNMENT ( #112, #62, ( #50 ) ) ;
#170 = DIRECTION ( 'NONE',  ( 1.000000000000000000, 0.0000000000000000000, 0.0000000000000000000 ) ) ;
#171 = DATE_AND_TIME ( #135, #132 ) ;
#172 = AXIS2_PLACEMENT_3D ( 'NONE', #72, #10, #170 ) ;
#173 = AXIS2_PLACEMENT_3D ( 'NONE', #110, #60, #150 ) ;
#174 = PERSON_AND_ORGANIZATION ( #130, #33 ) ;
#175 = VERTEX_POINT ( 'NONE', #23 ) ;
ENDSEC;
END-ISO-10303-21;
