ISO-10303-21;
HEADER;
FILE_DESCRIPTION (( 'STEP AP203' ),
    '1' );
FILE_NAME ('Web Model 68369_48903.step',
    '2017-03-01T19:00:08',
    ( '' ),
    ( '' ),
    'SwSTEP 2.0',
    'SolidWorks 2016',
    '' );
FILE_SCHEMA (( 'CONFIG_CONTROL_DESIGN' ));
ENDSEC;

DATA;
#1 = ADVANCED_FACE ( 'NONE', ( #218 ), #167, .F. ) ;
#2 = PLANE ( 'NONE',  #93 ) ;
#3 = AXIS2_PLACEMENT_3D ( 'NONE', #144, #214, #132 ) ;
#4 = CC_DESIGN_PERSON_AND_ORGANIZATION_ASSIGNMENT ( #150, #237, ( #20 ) ) ;
#5 = ORIENTED_EDGE ( 'NONE', *, *, #87, .T. ) ;
#6 = VECTOR ( 'NONE', #122, 1000.000000000000000 ) ;
#7 = APPROVAL ( #233, 'UNSPECIFIED' ) ;
#8 = LINE ( 'NONE', #38, #211 ) ;
#9 = LINE ( 'NONE', #69, #228 ) ;
#10 = PRODUCT_RELATED_PRODUCT_CATEGORY ( 'detail', '', ( #145 ) ) ;
#11 = PERSON_AND_ORGANIZATION_ROLE ( 'design_owner' ) ;
#12 = APPLICATION_PROTOCOL_DEFINITION ( 'international standard', 'config_control_design', 1994, #66 ) ;
#13 = CARTESIAN_POINT ( 'NONE',  ( -12.49999999999999800, 12.49999999999999600, 3.000000000000000000 ) ) ;
#14 = VERTEX_POINT ( 'NONE', #186 ) ;
#15 = CC_DESIGN_PERSON_AND_ORGANIZATION_ASSIGNMENT ( #157, #139, ( #107 ) ) ;
#16 = CLOSED_SHELL ( 'NONE', ( #105, #1, #169, #227, #182, #35 ) ) ;
#17 = ORIENTED_EDGE ( 'NONE', *, *, #216, .F. ) ;
#18 = CARTESIAN_POINT ( 'NONE',  ( -12.49999999999999500, -12.50000000000000400, 3.000000000000000000 ) ) ;
#19 = LINE ( 'NONE', #111, #6 ) ;
#20 = SECURITY_CLASSIFICATION ( '', '', #60 ) ;
#21 = DIRECTION ( 'NONE',  ( -0.0000000000000000000, -0.0000000000000000000, -1.000000000000000000 ) ) ;
#22 = EDGE_CURVE ( 'NONE', #176, #137, #94, .T. ) ;
#23 = ORIENTED_EDGE ( 'NONE', *, *, #129, .F. ) ;
#24 = LINE ( 'NONE', #155, #134 ) ;
#25 = EDGE_LOOP ( 'NONE', ( #172, #86, #23, #131 ) ) ;
#26 = DIRECTION ( 'NONE',  ( -1.387778780781445400E-016, 1.000000000000000000, 0.0000000000000000000 ) ) ;
#27 = LINE ( 'NONE', #112, #97 ) ;
#28 = ORIENTED_EDGE ( 'NONE', *, *, #43, .F. ) ;
#29 = EDGE_CURVE ( 'NONE', #49, #137, #8, .T. ) ;
#30 = CARTESIAN_POINT ( 'NONE',  ( -12.49999999999999800, 12.49999999999999600, 3.000000000000000000 ) ) ;
#31 = CC_DESIGN_SECURITY_CLASSIFICATION ( #20, ( #107 ) ) ;
#32 = VERTEX_POINT ( 'NONE', #231 ) ;
#33 = CALENDAR_DATE ( 2017, 1, 3 ) ;
#34 = DIRECTION ( 'NONE',  ( -1.000000000000000000, 0.0000000000000000000, -0.0000000000000000000 ) ) ;
#35 = ADVANCED_FACE ( 'NONE', ( #79 ), #96, .T. ) ;
#36 = CARTESIAN_POINT ( 'NONE',  ( 12.50000000000000500, -12.50000000000000000, 0.0000000000000000000 ) ) ;
#37 = VERTEX_POINT ( 'NONE', #158 ) ;
#38 = CARTESIAN_POINT ( 'NONE',  ( 12.49999999999999500, 12.50000000000000000, 3.000000000000000000 ) ) ;
#39 = CARTESIAN_POINT ( 'NONE',  ( 12.49999999999999500, 12.50000000000000000, 0.0000000000000000000 ) ) ;
#40 = ORIENTED_EDGE ( 'NONE', *, *, #52, .T. ) ;
#41 = PERSON_AND_ORGANIZATION_ROLE ( 'design_supplier' ) ;
#42 = COORDINATED_UNIVERSAL_TIME_OFFSET ( 5, 0, .BEHIND. ) ;
#43 = EDGE_CURVE ( 'NONE', #108, #49, #27, .T. ) ;
#44 = DATE_AND_TIME ( #175, #149 ) ;
#45 = DATE_AND_TIME ( #33, #183 ) ;
#46 = DIRECTION ( 'NONE',  ( 0.0000000000000000000, 0.0000000000000000000, -1.000000000000000000 ) ) ;
#47 = DIRECTION ( 'NONE',  ( 1.000000000000000000, 1.387778780781445900E-016, 0.0000000000000000000 ) ) ;
#48 = PERSON_AND_ORGANIZATION ( #64, #170 ) ;
#49 = VERTEX_POINT ( 'NONE', #73 ) ;
#50 = ORIENTED_EDGE ( 'NONE', *, *, #43, .T. ) ;
#51 = COORDINATED_UNIVERSAL_TIME_OFFSET ( 5, 0, .BEHIND. ) ;
#52 = EDGE_CURVE ( 'NONE', #49, #37, #9, .T. ) ;
#53 = CC_DESIGN_PERSON_AND_ORGANIZATION_ASSIGNMENT ( #125, #11, ( #145 ) ) ;
#54 = DIRECTION ( 'NONE',  ( 1.000000000000000000, 1.387778780781445700E-016, -0.0000000000000000000 ) ) ;
#55 = LOCAL_TIME ( 14, 0, 8.000000000000000000, #152 ) ;
#56 =( GEOMETRIC_REPRESENTATION_CONTEXT ( 3 ) GLOBAL_UNCERTAINTY_ASSIGNED_CONTEXT ( ( #59 ) ) GLOBAL_UNIT_ASSIGNED_CONTEXT ( ( #81, #198, #196 ) ) REPRESENTATION_CONTEXT ( 'NONE', 'WORKASPACE' ) );
#57 = APPROVAL_ROLE ( '' ) ;
#58 = ORIENTED_EDGE ( 'NONE', *, *, #101, .F. ) ;
#59 = UNCERTAINTY_MEASURE_WITH_UNIT (LENGTH_MEASURE( 1.000000000000000100E-005 ), #81, 'distance_accuracy_value', 'NONE');
#60 = SECURITY_CLASSIFICATION_LEVEL ( 'unclassified' ) ;
#61 = DIRECTION ( 'NONE',  ( -1.000000000000000000, -1.387778780781445900E-016, 0.0000000000000000000 ) ) ;
#62 = APPROVAL_DATE_TIME ( #67, #217 ) ;
#63 = EDGE_CURVE ( 'NONE', #37, #166, #89, .T. ) ;
#64 = PERSON ( 'UNSPECIFIED', 'UNSPECIFIED', 'UNSPECIFIED', ('UNSPECIFIED'), ('UNSPECIFIED'), ('UNSPECIFIED') ) ;
#65 = DIRECTION ( 'NONE',  ( -1.000000000000000000, 0.0000000000000000000, -0.0000000000000000000 ) ) ;
#66 = APPLICATION_CONTEXT ( 'configuration controlled 3d designs of mechanical parts and assemblies' ) ;
#67 = DATE_AND_TIME ( #128, #151 ) ;
#68 = PERSON_AND_ORGANIZATION_ROLE ( 'creator' ) ;
#69 = CARTESIAN_POINT ( 'NONE',  ( 12.49999999999999500, 12.50000000000000000, 3.000000000000000000 ) ) ;
#70 = DIRECTION ( 'NONE',  ( -1.387778780781445400E-016, 1.000000000000000000, 0.0000000000000000000 ) ) ;
#71 = EDGE_CURVE ( 'NONE', #14, #32, #119, .T. ) ;
#72 = CARTESIAN_POINT ( 'NONE',  ( 12.49999999999999500, 12.50000000000000000, 3.000000000000000000 ) ) ;
#73 = CARTESIAN_POINT ( 'NONE',  ( 12.49999999999999500, 12.50000000000000000, 3.000000000000000000 ) ) ;
#74 = AXIS2_PLACEMENT_3D ( 'NONE', #88, #46, #34 ) ;
#75 = DATE_AND_TIME ( #229, #55 ) ;
#76 = LINE ( 'NONE', #77, #202 ) ;
#77 = CARTESIAN_POINT ( 'NONE',  ( -12.49999999999999800, 12.49999999999999600, 3.000000000000000000 ) ) ;
#78 = CC_DESIGN_APPROVAL ( #217, ( #107 ) ) ;
#79 = FACE_OUTER_BOUND ( 'NONE', #146, .T. ) ;
#80 = MECHANICAL_CONTEXT ( 'NONE', #66, 'mechanical' ) ;
#81 =( LENGTH_UNIT ( ) NAMED_UNIT ( * ) SI_UNIT ( .MILLI., .METRE. ) );
#82 = FACE_OUTER_BOUND ( 'NONE', #191, .T. ) ;
#83 = APPLICATION_CONTEXT ( 'configuration controlled 3d designs of mechanical parts and assemblies' ) ;
#84 = ORIENTED_EDGE ( 'NONE', *, *, #22, .F. ) ;
#85 = DIRECTION ( 'NONE',  ( 1.000000000000000000, 1.387778780781445400E-016, -0.0000000000000000000 ) ) ;
#86 = ORIENTED_EDGE ( 'NONE', *, *, #71, .F. ) ;
#87 = EDGE_CURVE ( 'NONE', #14, #108, #205, .T. ) ;
#88 = CARTESIAN_POINT ( 'NONE',  ( -12.49999999999999500, -12.50000000000000400, 0.0000000000000000000 ) ) ;
#89 = LINE ( 'NONE', #13, #212 ) ;
#90 = CARTESIAN_POINT ( 'NONE',  ( -12.49999999999999800, 12.49999999999999600, 0.0000000000000000000 ) ) ;
#91 = ORIENTED_EDGE ( 'NONE', *, *, #223, .F. ) ;
#92 = APPROVAL_STATUS ( 'not_yet_approved' ) ;
#93 = AXIS2_PLACEMENT_3D ( 'NONE', #165, #104, #65 ) ;
#94 = LINE ( 'NONE', #39, #124 ) ;
#95 = APPROVAL_PERSON_ORGANIZATION ( #219, #226, #57 ) ;
#96 = PLANE ( 'NONE',  #74 ) ;
#97 = VECTOR ( 'NONE', #215, 1000.000000000000000 ) ;
#98 = CC_DESIGN_DATE_AND_TIME_ASSIGNMENT ( #116, #147, ( #20 ) ) ;
#99 = ORIENTED_EDGE ( 'NONE', *, *, #216, .T. ) ;
#100 = FACE_OUTER_BOUND ( 'NONE', #25, .T. ) ;
#101 = EDGE_CURVE ( 'NONE', #166, #32, #232, .T. ) ;
#102 = FACE_OUTER_BOUND ( 'NONE', #163, .T. ) ;
#103 = DATE_TIME_ROLE ( 'creation_date' ) ;
#104 = DIRECTION ( 'NONE',  ( 0.0000000000000000000, 0.0000000000000000000, -1.000000000000000000 ) ) ;
#105 = ADVANCED_FACE ( 'NONE', ( #100 ), #115, .F. ) ;
#106 = VECTOR ( 'NONE', #21, 1000.000000000000000 ) ;
#107 = PRODUCT_DEFINITION_FORMATION_WITH_SPECIFIED_SOURCE ( 'ANY', '', #145, .NOT_KNOWN. ) ;
#108 = VERTEX_POINT ( 'NONE', #195 ) ;
#109 = APPROVAL_ROLE ( '' ) ;
#110 = AXIS2_PLACEMENT_3D ( 'NONE', #72, #177, #190 ) ;
#111 = CARTESIAN_POINT ( 'NONE',  ( 12.50000000000000500, -12.50000000000000000, 0.0000000000000000000 ) ) ;
#112 = CARTESIAN_POINT ( 'NONE',  ( 12.49999999999999500, 12.50000000000000000, 3.000000000000000000 ) ) ;
#113 = LINE ( 'NONE', #230, #197 ) ;
#114 = PERSON_AND_ORGANIZATION ( #64, #170 ) ;
#115 = PLANE ( 'NONE',  #133 ) ;
#116 = DATE_AND_TIME ( #148, #187 ) ;
#117 = DIRECTION ( 'NONE',  ( 1.387778780781445700E-016, -1.000000000000000000, 0.0000000000000000000 ) ) ;
#118 = ADVANCED_BREP_SHAPE_REPRESENTATION ( 'Web Model 68369_48903', ( #188, #3 ), #56 ) ;
#119 = LINE ( 'NONE', #18, #106 ) ;
#120 = FACE_OUTER_BOUND ( 'NONE', #140, .T. ) ;
#121 = ORIENTED_EDGE ( 'NONE', *, *, #22, .T. ) ;
#122 = DIRECTION ( 'NONE',  ( 1.000000000000000000, 1.387778780781445700E-016, -0.0000000000000000000 ) ) ;
#123 = DIRECTION ( 'NONE',  ( -0.0000000000000000000, -0.0000000000000000000, -1.000000000000000000 ) ) ;
#124 = VECTOR ( 'NONE', #141, 1000.000000000000000 ) ;
#125 = PERSON_AND_ORGANIZATION ( #64, #170 ) ;
#126 = APPROVAL_DATE_TIME ( #75, #226 ) ;
#127 = PLANE ( 'NONE',  #110 ) ;
#128 = CALENDAR_DATE ( 2017, 1, 3 ) ;
#129 = EDGE_CURVE ( 'NONE', #37, #14, #76, .T. ) ;
#130 = CARTESIAN_POINT ( 'NONE',  ( 12.49999999999999500, 12.50000000000000000, 3.000000000000000000 ) ) ;
#131 = ORIENTED_EDGE ( 'NONE', *, *, #63, .T. ) ;
#132 = DIRECTION ( 'NONE',  ( 1.000000000000000000, 0.0000000000000000000, 0.0000000000000000000 ) ) ;
#133 = AXIS2_PLACEMENT_3D ( 'NONE', #30, #85, #26 ) ;
#134 = VECTOR ( 'NONE', #189, 1000.000000000000000 ) ;
#135 = ORIENTED_EDGE ( 'NONE', *, *, #63, .F. ) ;
#136 = CARTESIAN_POINT ( 'NONE',  ( 12.50000000000000500, -12.50000000000000000, 3.000000000000000000 ) ) ;
#137 = VERTEX_POINT ( 'NONE', #173 ) ;
#138 = CC_DESIGN_PERSON_AND_ORGANIZATION_ASSIGNMENT ( #184, #41, ( #107 ) ) ;
#139 = PERSON_AND_ORGANIZATION_ROLE ( 'creator' ) ;
#140 = EDGE_LOOP ( 'NONE', ( #171, #5, #50, #40 ) ) ;
#141 = DIRECTION ( 'NONE',  ( -4.163336342344337000E-016, 1.000000000000000000, -0.0000000000000000000 ) ) ;
#142 = ORIENTED_EDGE ( 'NONE', *, *, #29, .T. ) ;
#143 = PRODUCT_DEFINITION_SHAPE ( 'NONE', 'NONE',  #179 ) ;
#144 = CARTESIAN_POINT ( 'NONE',  ( 0.0000000000000000000, 0.0000000000000000000, 0.0000000000000000000 ) ) ;
#145 = PRODUCT ( 'Web Model 68369_48903', 'Web Model 68369_48903', '', ( #80 ) ) ;
#146 = EDGE_LOOP ( 'NONE', ( #58, #203, #84, #17 ) ) ;
#147 = DATE_TIME_ROLE ( 'classification_date' ) ;
#148 = CALENDAR_DATE ( 2017, 1, 3 ) ;
#149 = LOCAL_TIME ( 14, 0, 8.000000000000000000, #42 ) ;
#150 = PERSON_AND_ORGANIZATION ( #64, #170 ) ;
#151 = LOCAL_TIME ( 14, 0, 8.000000000000000000, #159 ) ;
#152 = COORDINATED_UNIVERSAL_TIME_OFFSET ( 5, 0, .BEHIND. ) ;
#153 = CC_DESIGN_APPROVAL ( #226, ( #20 ) ) ;
#154 = ORIENTED_EDGE ( 'NONE', *, *, #87, .F. ) ;
#155 = CARTESIAN_POINT ( 'NONE',  ( 12.50000000000000500, -12.50000000000000000, 3.000000000000000000 ) ) ;
#156 = EDGE_CURVE ( 'NONE', #137, #166, #113, .T. ) ;
#157 = PERSON_AND_ORGANIZATION ( #64, #170 ) ;
#158 = CARTESIAN_POINT ( 'NONE',  ( -12.49999999999999800, 12.49999999999999600, 3.000000000000000000 ) ) ;
#159 = COORDINATED_UNIVERSAL_TIME_OFFSET ( 5, 0, .BEHIND. ) ;
#160 = VECTOR ( 'NONE', #54, 1000.000000000000000 ) ;
#161 = APPROVAL_DATE_TIME ( #45, #7 ) ;
#162 = DIRECTION ( 'NONE',  ( -1.000000000000000000, -1.387778780781445400E-016, 0.0000000000000000000 ) ) ;
#163 = EDGE_LOOP ( 'NONE', ( #121, #209, #28, #236 ) ) ;
#164 = APPROVAL_PERSON_ORGANIZATION ( #114, #7, #201 ) ;
#165 = CARTESIAN_POINT ( 'NONE',  ( -12.49999999999999500, -12.50000000000000400, 3.000000000000000000 ) ) ;
#166 = VERTEX_POINT ( 'NONE', #168 ) ;
#167 = PLANE ( 'NONE',  #206 ) ;
#168 = CARTESIAN_POINT ( 'NONE',  ( -12.49999999999999800, 12.49999999999999600, 0.0000000000000000000 ) ) ;
#169 = ADVANCED_FACE ( 'NONE', ( #102 ), #127, .F. ) ;
#170 = ORGANIZATION ( 'UNSPECIFIED', 'UNSPECIFIED', '' ) ;
#171 = ORIENTED_EDGE ( 'NONE', *, *, #129, .T. ) ;
#172 = ORIENTED_EDGE ( 'NONE', *, *, #101, .T. ) ;
#173 = CARTESIAN_POINT ( 'NONE',  ( 12.49999999999999500, 12.50000000000000000, 0.0000000000000000000 ) ) ;
#174 = COORDINATED_UNIVERSAL_TIME_OFFSET ( 5, 0, .BEHIND. ) ;
#175 = CALENDAR_DATE ( 2017, 1, 3 ) ;
#176 = VERTEX_POINT ( 'NONE', #36 ) ;
#177 = DIRECTION ( 'NONE',  ( -1.000000000000000000, -4.163336342344336500E-016, 0.0000000000000000000 ) ) ;
#178 = EDGE_LOOP ( 'NONE', ( #99, #91, #154, #192 ) ) ;
#179 = PRODUCT_DEFINITION ( 'UNKNOWN', '', #107, #181 ) ;
#180 = PERSON_AND_ORGANIZATION ( #64, #170 ) ;
#181 = DESIGN_CONTEXT ( 'detailed design', #83, 'design' ) ;
#182 = ADVANCED_FACE ( 'NONE', ( #120 ), #2, .F. ) ;
#183 = LOCAL_TIME ( 14, 0, 8.000000000000000000, #174 ) ;
#184 = PERSON_AND_ORGANIZATION ( #64, #170 ) ;
#185 = DIRECTION ( 'NONE',  ( -0.0000000000000000000, -0.0000000000000000000, -1.000000000000000000 ) ) ;
#186 = CARTESIAN_POINT ( 'NONE',  ( -12.49999999999999500, -12.50000000000000400, 3.000000000000000000 ) ) ;
#187 = LOCAL_TIME ( 14, 0, 8.000000000000000000, #51 ) ;
#188 = MANIFOLD_SOLID_BREP ( 'Extrude1', #16 ) ;
#189 = DIRECTION ( 'NONE',  ( -0.0000000000000000000, -0.0000000000000000000, -1.000000000000000000 ) ) ;
#190 = DIRECTION ( 'NONE',  ( 4.163336342344336500E-016, -1.000000000000000000, 0.0000000000000000000 ) ) ;
#191 = EDGE_LOOP ( 'NONE', ( #220, #135, #235, #142 ) ) ;
#192 = ORIENTED_EDGE ( 'NONE', *, *, #71, .T. ) ;
#193 = SHAPE_DEFINITION_REPRESENTATION ( #143, #118 ) ;
#194 = APPROVAL_PERSON_ORGANIZATION ( #48, #217, #109 ) ;
#195 = CARTESIAN_POINT ( 'NONE',  ( 12.50000000000000500, -12.50000000000000000, 3.000000000000000000 ) ) ;
#196 =( NAMED_UNIT ( * ) SI_UNIT ( $, .STERADIAN. ) SOLID_ANGLE_UNIT ( ) );
#197 = VECTOR ( 'NONE', #199, 1000.000000000000000 ) ;
#198 =( NAMED_UNIT ( * ) PLANE_ANGLE_UNIT ( ) SI_UNIT ( $, .RADIAN. ) );
#199 = DIRECTION ( 'NONE',  ( -1.000000000000000000, -1.387778780781445900E-016, 0.0000000000000000000 ) ) ;
#200 = VECTOR ( 'NONE', #117, 1000.000000000000000 ) ;
#201 = APPROVAL_ROLE ( '' ) ;
#202 = VECTOR ( 'NONE', #221, 1000.000000000000000 ) ;
#203 = ORIENTED_EDGE ( 'NONE', *, *, #156, .F. ) ;
#204 = AXIS2_PLACEMENT_3D ( 'NONE', #130, #213, #47 ) ;
#205 = LINE ( 'NONE', #136, #160 ) ;
#206 = AXIS2_PLACEMENT_3D ( 'NONE', #224, #70, #162 ) ;
#207 = CC_DESIGN_APPROVAL ( #7, ( #179 ) ) ;
#208 = CC_DESIGN_DATE_AND_TIME_ASSIGNMENT ( #44, #103, ( #179 ) ) ;
#209 = ORIENTED_EDGE ( 'NONE', *, *, #29, .F. ) ;
#210 = APPROVAL_STATUS ( 'not_yet_approved' ) ;
#211 = VECTOR ( 'NONE', #123, 1000.000000000000000 ) ;
#212 = VECTOR ( 'NONE', #185, 1000.000000000000000 ) ;
#213 = DIRECTION ( 'NONE',  ( 1.387778780781445900E-016, -1.000000000000000000, 0.0000000000000000000 ) ) ;
#214 = DIRECTION ( 'NONE',  ( 0.0000000000000000000, 0.0000000000000000000, 1.000000000000000000 ) ) ;
#215 = DIRECTION ( 'NONE',  ( -4.163336342344337000E-016, 1.000000000000000000, -0.0000000000000000000 ) ) ;
#216 = EDGE_CURVE ( 'NONE', #32, #176, #19, .T. ) ;
#217 = APPROVAL ( #92, 'UNSPECIFIED' ) ;
#218 = FACE_OUTER_BOUND ( 'NONE', #178, .T. ) ;
#219 = PERSON_AND_ORGANIZATION ( #64, #170 ) ;
#220 = ORIENTED_EDGE ( 'NONE', *, *, #156, .T. ) ;
#221 = DIRECTION ( 'NONE',  ( 1.387778780781445700E-016, -1.000000000000000000, 0.0000000000000000000 ) ) ;
#222 = PLANE ( 'NONE',  #204 ) ;
#223 = EDGE_CURVE ( 'NONE', #108, #176, #24, .T. ) ;
#224 = CARTESIAN_POINT ( 'NONE',  ( 12.50000000000000500, -12.50000000000000000, 3.000000000000000000 ) ) ;
#225 = APPLICATION_PROTOCOL_DEFINITION ( 'international standard', 'config_control_design', 1994, #83 ) ;
#226 = APPROVAL ( #210, 'UNSPECIFIED' ) ;
#227 = ADVANCED_FACE ( 'NONE', ( #82 ), #222, .F. ) ;
#228 = VECTOR ( 'NONE', #61, 1000.000000000000000 ) ;
#229 = CALENDAR_DATE ( 2017, 1, 3 ) ;
#230 = CARTESIAN_POINT ( 'NONE',  ( 12.49999999999999500, 12.50000000000000000, 0.0000000000000000000 ) ) ;
#231 = CARTESIAN_POINT ( 'NONE',  ( -12.49999999999999500, -12.50000000000000400, 0.0000000000000000000 ) ) ;
#232 = LINE ( 'NONE', #90, #200 ) ;
#233 = APPROVAL_STATUS ( 'not_yet_approved' ) ;
#234 = CC_DESIGN_PERSON_AND_ORGANIZATION_ASSIGNMENT ( #180, #68, ( #179 ) ) ;
#235 = ORIENTED_EDGE ( 'NONE', *, *, #52, .F. ) ;
#236 = ORIENTED_EDGE ( 'NONE', *, *, #223, .T. ) ;
#237 = PERSON_AND_ORGANIZATION_ROLE ( 'classification_officer' ) ;
ENDSEC;
END-ISO-10303-21;
