ISO-10303-21;
HEADER;
FILE_DESCRIPTION (( 'STEP AP203' ),
    '1' );
FILE_NAME ('Web Model 47571.STEP',
    '2017-02-01T19:12:38',
    ( '' ),
    ( '' ),
    'SwSTEP 2.0',
    'SolidWorks 2016',
    '' );
FILE_SCHEMA (( 'CONFIG_CONTROL_DESIGN' ));
ENDSEC;

DATA;
#1 = VECTOR ( 'NONE', #183, 1000.000000000000100 ) ;
#2 = ORIENTED_EDGE ( 'NONE', *, *, #47, .T. ) ;
#3 = PERSON_AND_ORGANIZATION ( #205, #223 ) ;
#4 = FACE_OUTER_BOUND ( 'NONE', #266, .T. ) ;
#5 = EDGE_LOOP ( 'NONE', ( #70, #170, #222, #21 ) ) ;
#6 = DIRECTION ( 'NONE',  ( -0.7071067811865512400, -0.7071067811865439100, 0.0000000000000000000 ) ) ;
#7 = CARTESIAN_POINT ( 'NONE',  ( -24.74873734152929200, 0.0000000000000000000, 17.50000000000000000 ) ) ;
#8 = ORIENTED_EDGE ( 'NONE', *, *, #187, .T. ) ;
#9 = ORIENTED_EDGE ( 'NONE', *, *, #78, .T. ) ;
#10 = CARTESIAN_POINT ( 'NONE',  ( -1.298504712866985000E-015, -24.74873734152903600, 17.50000000000000400 ) ) ;
#11 = CARTESIAN_POINT ( 'NONE',  ( -24.74873734152929200, 0.0000000000000000000, -17.50000000000000000 ) ) ;
#12 = VECTOR ( 'NONE', #208, 1000.000000000000100 ) ;
#13 = DIRECTION ( 'NONE',  ( 0.0000000000000000000, 2.220446049250312600E-016, -1.000000000000000000 ) ) ;
#14 = MECHANICAL_CONTEXT ( 'NONE', #160, 'mechanical' ) ;
#15 = AXIS2_PLACEMENT_3D ( 'NONE', #39, #42, #64 ) ;
#16 = CARTESIAN_POINT ( 'NONE',  ( 24.74873734152929200, -3.885780586188047900E-015, 17.50000000000000400 ) ) ;
#17 = FACE_OUTER_BOUND ( 'NONE', #5, .T. ) ;
#18 = DATE_TIME_ROLE ( 'creation_date' ) ;
#19 = ORIENTED_EDGE ( 'NONE', *, *, #226, .F. ) ;
#20 = APPROVAL_PERSON_ORGANIZATION ( #76, #162, #220 ) ;
#21 = ORIENTED_EDGE ( 'NONE', *, *, #52, .T. ) ;
#22 = PRODUCT_DEFINITION ( 'UNKNOWN', '', #121, #115 ) ;
#23 = LINE ( 'NONE', #30, #278 ) ;
#24 = ORIENTED_EDGE ( 'NONE', *, *, #146, .F. ) ;
#25 = CC_DESIGN_SECURITY_CLASSIFICATION ( #238, ( #121 ) ) ;
#26 = LINE ( 'NONE', #261, #65 ) ;
#27 = VERTEX_POINT ( 'NONE', #239 ) ;
#28 = CARTESIAN_POINT ( 'NONE',  ( 24.74873734152929200, -3.885780586188047900E-015, 17.50000000000000400 ) ) ;
#29 = VECTOR ( 'NONE', #258, 1000.000000000000000 ) ;
#30 = CARTESIAN_POINT ( 'NONE',  ( 24.74873734152929200, -3.885780586188047900E-015, 17.50000000000000400 ) ) ;
#31 = ORIENTED_EDGE ( 'NONE', *, *, #47, .F. ) ;
#32 = PLANE ( 'NONE',  #82 ) ;
#33 = PERSON_AND_ORGANIZATION_ROLE ( 'design_owner' ) ;
#34 = COORDINATED_UNIVERSAL_TIME_OFFSET ( 5, 0, .BEHIND. ) ;
#35 = EDGE_CURVE ( 'NONE', #311, #122, #269, .T. ) ;
#36 = CARTESIAN_POINT ( 'NONE',  ( 24.74873734152929200, -3.025926310689071700E-015, 17.50000000000000000 ) ) ;
#37 = DIRECTION ( 'NONE',  ( -1.000000000000000000, 0.0000000000000000000, 0.0000000000000000000 ) ) ;
#38 = CARTESIAN_POINT ( 'NONE',  ( 1.298504712866985000E-015, 24.74873734152903300, 17.50000000000000000 ) ) ;
#39 = CARTESIAN_POINT ( 'NONE',  ( 0.0000000000000000000, 0.0000000000000000000, 0.0000000000000000000 ) ) ;
#40 = DIRECTION ( 'NONE',  ( -0.0000000000000000000, -0.0000000000000000000, -1.000000000000000000 ) ) ;
#41 = DATE_AND_TIME ( #86, #272 ) ;
#42 = DIRECTION ( 'NONE',  ( 0.0000000000000000000, 0.0000000000000000000, 1.000000000000000000 ) ) ;
#43 = CC_DESIGN_PERSON_AND_ORGANIZATION_ASSIGNMENT ( #297, #242, ( #22 ) ) ;
#44 = VECTOR ( 'NONE', #100, 1000.000000000000000 ) ;
#45 = ORIENTED_EDGE ( 'NONE', *, *, #143, .T. ) ;
#46 = VERTEX_POINT ( 'NONE', #282 ) ;
#47 = EDGE_CURVE ( 'NONE', #46, #230, #265, .T. ) ;
#48 = CC_DESIGN_APPROVAL ( #229, ( #22 ) ) ;
#49 = ORIENTED_EDGE ( 'NONE', *, *, #88, .T. ) ;
#50 = COORDINATED_UNIVERSAL_TIME_OFFSET ( 5, 0, .BEHIND. ) ;
#51 = ORIENTED_EDGE ( 'NONE', *, *, #143, .F. ) ;
#52 = EDGE_CURVE ( 'NONE', #138, #27, #213, .T. ) ;
#53 = PERSON_AND_ORGANIZATION ( #205, #223 ) ;
#54 = LINE ( 'NONE', #130, #29 ) ;
#55 = VECTOR ( 'NONE', #212, 1000.000000000000000 ) ;
#56 = AXIS2_PLACEMENT_3D ( 'NONE', #281, #128, #289 ) ;
#57 = CARTESIAN_POINT ( 'NONE',  ( -24.74873734152929200, -8.598542754989764900E-016, 17.50000000000000400 ) ) ;
#58 = DIRECTION ( 'NONE',  ( -0.7071067811865512400, -0.7071067811865439100, 0.0000000000000000000 ) ) ;
#59 = ORIENTED_EDGE ( 'NONE', *, *, #299, .F. ) ;
#60 = DIRECTION ( 'NONE',  ( -0.7071067811865439100, 0.7071067811865512400, 0.0000000000000000000 ) ) ;
#61 = CALENDAR_DATE ( 2017, 1, 2 ) ;
#62 = DIRECTION ( 'NONE',  ( -0.7071067811865511300, 0.7071067811865440200, 0.0000000000000000000 ) ) ;
#63 = AXIS2_PLACEMENT_3D ( 'NONE', #10, #60, #308 ) ;
#64 = DIRECTION ( 'NONE',  ( 1.000000000000000000, 0.0000000000000000000, 0.0000000000000000000 ) ) ;
#65 = VECTOR ( 'NONE', #176, 1000.000000000000000 ) ;
#66 = ORIENTED_EDGE ( 'NONE', *, *, #52, .F. ) ;
#67 = EDGE_LOOP ( 'NONE', ( #85, #66, #79, #45 ) ) ;
#68 = APPROVAL_DATE_TIME ( #243, #196 ) ;
#69 =( GEOMETRIC_REPRESENTATION_CONTEXT ( 3 ) GLOBAL_UNCERTAINTY_ASSIGNED_CONTEXT ( ( #292 ) ) GLOBAL_UNIT_ASSIGNED_CONTEXT ( ( #240, #264, #256 ) ) REPRESENTATION_CONTEXT ( 'NONE', 'WORKASPACE' ) );
#70 = ORIENTED_EDGE ( 'NONE', *, *, #299, .T. ) ;
#71 = ORIENTED_EDGE ( 'NONE', *, *, #204, .F. ) ;
#72 = EDGE_CURVE ( 'NONE', #311, #46, #73, .T. ) ;
#73 = LINE ( 'NONE', #157, #253 ) ;
#74 = AXIS2_PLACEMENT_3D ( 'NONE', #255, #137, #84 ) ;
#75 = VERTEX_POINT ( 'NONE', #216 ) ;
#76 = PERSON_AND_ORGANIZATION ( #205, #223 ) ;
#77 = PLANE ( 'NONE',  #166 ) ;
#78 = EDGE_CURVE ( 'NONE', #317, #75, #221, .T. ) ;
#79 = ORIENTED_EDGE ( 'NONE', *, *, #187, .F. ) ;
#80 = FACE_OUTER_BOUND ( 'NONE', #173, .T. ) ;
#81 = CARTESIAN_POINT ( 'NONE',  ( 24.74873734152929200, -3.025926310689071700E-015, 17.50000000000000000 ) ) ;
#82 = AXIS2_PLACEMENT_3D ( 'NONE', #135, #207, #305 ) ;
#83 = DIRECTION ( 'NONE',  ( 0.7071067811865440200, 0.7071067811865511300, 0.0000000000000000000 ) ) ;
#84 = DIRECTION ( 'NONE',  ( 1.000000000000000000, 0.0000000000000000000, -0.0000000000000000000 ) ) ;
#85 = ORIENTED_EDGE ( 'NONE', *, *, #152, .T. ) ;
#86 = CALENDAR_DATE ( 2017, 1, 2 ) ;
#87 = PERSON_AND_ORGANIZATION_ROLE ( 'design_supplier' ) ;
#88 = EDGE_CURVE ( 'NONE', #191, #75, #247, .T. ) ;
#89 = CC_DESIGN_DATE_AND_TIME_ASSIGNMENT ( #117, #139, ( #238 ) ) ;
#90 = PERSON_AND_ORGANIZATION ( #205, #223 ) ;
#91 = ORIENTED_EDGE ( 'NONE', *, *, #35, .T. ) ;
#92 = EDGE_LOOP ( 'NONE', ( #49, #274, #320, #279 ) ) ;
#93 = COORDINATED_UNIVERSAL_TIME_OFFSET ( 5, 0, .BEHIND. ) ;
#94 = ORIENTED_EDGE ( 'NONE', *, *, #35, .F. ) ;
#95 = LOCAL_TIME ( 14, 12, 38.00000000000000000, #34 ) ;
#96 = APPROVAL_PERSON_ORGANIZATION ( #241, #229, #112 ) ;
#97 = PLANE ( 'NONE',  #56 ) ;
#98 = EDGE_CURVE ( 'NONE', #138, #311, #114, .T. ) ;
#99 = PRODUCT ( 'Web Model 47571', 'Web Model 47571', '', ( #14 ) ) ;
#100 = DIRECTION ( 'NONE',  ( -0.0000000000000000000, -0.0000000000000000000, -1.000000000000000000 ) ) ;
#101 = APPLICATION_PROTOCOL_DEFINITION ( 'international standard', 'config_control_design', 1994, #160 ) ;
#102 = CALENDAR_DATE ( 2017, 1, 2 ) ;
#103 = CC_DESIGN_PERSON_AND_ORGANIZATION_ASSIGNMENT ( #168, #87, ( #121 ) ) ;
#104 = ADVANCED_FACE ( 'NONE', ( #245 ), #32, .F. ) ;
#105 = CARTESIAN_POINT ( 'NONE',  ( -24.74873734152929200, 6.911706896877120000E-015, -17.50000000000000400 ) ) ;
#106 = CARTESIAN_POINT ( 'NONE',  ( -24.74873734152929200, -8.598542754989764900E-016, 17.50000000000000400 ) ) ;
#107 = EDGE_LOOP ( 'NONE', ( #127, #91, #8 ) ) ;
#108 = DIRECTION ( 'NONE',  ( 0.7071067811865511300, -0.7071067811865439100, 0.0000000000000000000 ) ) ;
#109 = CARTESIAN_POINT ( 'NONE',  ( -24.74873734152929200, -8.598542754989764900E-016, 17.50000000000000400 ) ) ;
#110 = APPROVAL_DATE_TIME ( #41, #229 ) ;
#111 = EDGE_CURVE ( 'NONE', #317, #154, #54, .T. ) ;
#112 = APPROVAL_ROLE ( '' ) ;
#113 = APPROVAL_STATUS ( 'not_yet_approved' ) ;
#114 = LINE ( 'NONE', #36, #300 ) ;
#115 = DESIGN_CONTEXT ( 'detailed design', #283, 'design' ) ;
#116 = EDGE_CURVE ( 'NONE', #144, #191, #167, .T. ) ;
#117 = DATE_AND_TIME ( #155, #182 ) ;
#118 = VECTOR ( 'NONE', #6, 1000.000000000000000 ) ;
#119 = FACE_OUTER_BOUND ( 'NONE', #148, .T. ) ;
#120 = VECTOR ( 'NONE', #13, 1000.000000000000000 ) ;
#121 = PRODUCT_DEFINITION_FORMATION_WITH_SPECIFIED_SOURCE ( 'ANY', '', #99, .NOT_KNOWN. ) ;
#122 = VERTEX_POINT ( 'NONE', #284 ) ;
#123 = EDGE_LOOP ( 'NONE', ( #2, #51, #94, #249 ) ) ;
#124 = DIRECTION ( 'NONE',  ( 0.7071067811865512400, 0.7071067811865439100, 0.0000000000000000000 ) ) ;
#125 = DIRECTION ( 'NONE',  ( 1.000000000000000000, -6.113294324740066300E-017, 0.0000000000000000000 ) ) ;
#126 = ORIENTED_EDGE ( 'NONE', *, *, #111, .F. ) ;
#127 = ORIENTED_EDGE ( 'NONE', *, *, #98, .T. ) ;
#128 = DIRECTION ( 'NONE',  ( 0.0000000000000000000, -2.220446049250312600E-016, 1.000000000000000000 ) ) ;
#129 = ADVANCED_FACE ( 'NONE', ( #4 ), #214, .F. ) ;
#130 = CARTESIAN_POINT ( 'NONE',  ( -1.298504712866985000E-015, -24.74873734152903600, 17.50000000000000400 ) ) ;
#131 = DIRECTION ( 'NONE',  ( -1.000000000000000000, 6.113294324740066300E-017, 0.0000000000000000000 ) ) ;
#132 = CLOSED_SHELL ( 'NONE', ( #315, #129, #165, #192, #270 ) ) ;
#133 = PLANE ( 'NONE',  #201 ) ;
#134 = DATE_AND_TIME ( #102, #199 ) ;
#135 = CARTESIAN_POINT ( 'NONE',  ( 1.298504712866985000E-015, 24.74873734152903300, 17.50000000000000000 ) ) ;
#136 = DIRECTION ( 'NONE',  ( 0.0000000000000000000, -2.220446049250312600E-016, 1.000000000000000000 ) ) ;
#137 = DIRECTION ( 'NONE',  ( 0.0000000000000000000, 0.0000000000000000000, 1.000000000000000000 ) ) ;
#138 = VERTEX_POINT ( 'NONE', #203 ) ;
#139 = DATE_TIME_ROLE ( 'classification_date' ) ;
#140 = CC_DESIGN_APPROVAL ( #162, ( #238 ) ) ;
#141 = CALENDAR_DATE ( 2017, 1, 2 ) ;
#142 = CLOSED_SHELL ( 'NONE', ( #193, #104, #234, #206, #175 ) ) ;
#143 = EDGE_CURVE ( 'NONE', #122, #230, #26, .T. ) ;
#144 = VERTEX_POINT ( 'NONE', #254 ) ;
#145 = DIRECTION ( 'NONE',  ( 1.000000000000000000, 0.0000000000000000000, -0.0000000000000000000 ) ) ;
#146 = EDGE_CURVE ( 'NONE', #154, #257, #23, .T. ) ;
#147 = VECTOR ( 'NONE', #171, 1000.000000000000000 ) ;
#148 = EDGE_LOOP ( 'NONE', ( #190, #194, #209 ) ) ;
#149 = LOCAL_TIME ( 14, 12, 38.00000000000000000, #93 ) ;
#150 = DIRECTION ( 'NONE',  ( 0.0000000000000000000, 0.0000000000000000000, 1.000000000000000000 ) ) ;
#151 = CARTESIAN_POINT ( 'NONE',  ( 0.0000000000000000000, 0.0000000000000000000, -17.50000000000000000 ) ) ;
#152 = EDGE_CURVE ( 'NONE', #230, #27, #287, .T. ) ;
#153 = CARTESIAN_POINT ( 'NONE',  ( 24.74873734152929200, -3.885780586188047900E-015, 17.50000000000000400 ) ) ;
#154 = VERTEX_POINT ( 'NONE', #153 ) ;
#155 = CALENDAR_DATE ( 2017, 1, 2 ) ;
#156 = DIRECTION ( 'NONE',  ( -0.7071067811865511300, 0.7071067811865439100, 0.0000000000000000000 ) ) ;
#157 = CARTESIAN_POINT ( 'NONE',  ( 1.298504712866985000E-015, 24.74873734152903300, 17.50000000000000000 ) ) ;
#158 = PLANE ( 'NONE',  #291 ) ;
#159 = ORIENTED_EDGE ( 'NONE', *, *, #116, .T. ) ;
#160 = APPLICATION_CONTEXT ( 'configuration controlled 3d designs of mechanical parts and assemblies' ) ;
#161 = COORDINATED_UNIVERSAL_TIME_OFFSET ( 5, 0, .BEHIND. ) ;
#162 = APPROVAL ( #312, 'UNSPECIFIED' ) ;
#163 = EDGE_CURVE ( 'NONE', #75, #144, #200, .T. ) ;
#164 = FACE_OUTER_BOUND ( 'NONE', #107, .T. ) ;
#165 = ADVANCED_FACE ( 'NONE', ( #172 ), #232, .F. ) ;
#166 = AXIS2_PLACEMENT_3D ( 'NONE', #151, #150, #145 ) ;
#167 = LINE ( 'NONE', #180, #319 ) ;
#168 = PERSON_AND_ORGANIZATION ( #205, #223 ) ;
#169 = LINE ( 'NONE', #252, #147 ) ;
#170 = ORIENTED_EDGE ( 'NONE', *, *, #72, .F. ) ;
#171 = DIRECTION ( 'NONE',  ( 1.000000000000000000, -6.113294324740066300E-017, 0.0000000000000000000 ) ) ;
#172 = FACE_OUTER_BOUND ( 'NONE', #271, .T. ) ;
#173 = EDGE_LOOP ( 'NONE', ( #248, #219, #237 ) ) ;
#174 = DIRECTION ( 'NONE',  ( -6.113294324740066300E-017, -1.000000000000000000, 0.0000000000000000000 ) ) ;
#175 = ADVANCED_FACE ( 'NONE', ( #184 ), #77, .F. ) ;
#176 = DIRECTION ( 'NONE',  ( -0.0000000000000000000, -0.0000000000000000000, -1.000000000000000000 ) ) ;
#177 = MANIFOLD_SOLID_BREP ( '35x35 Right Angle Prism Master-1-solid1', #142 ) ;
#178 = CARTESIAN_POINT ( 'NONE',  ( 1.298504712866985000E-015, 24.74873734152903300, -17.50000000000000000 ) ) ;
#179 = CARTESIAN_POINT ( 'NONE',  ( 0.0000000000000000000, 3.885780586188047900E-015, -17.50000000000000400 ) ) ;
#180 = CARTESIAN_POINT ( 'NONE',  ( 24.74873734152929200, 3.885780586188047900E-015, -17.50000000000000400 ) ) ;
#181 = CARTESIAN_POINT ( 'NONE',  ( -1.298504712866985000E-015, -24.74873734152903600, 17.50000000000000400 ) ) ;
#182 = LOCAL_TIME ( 14, 12, 38.00000000000000000, #318 ) ;
#183 = DIRECTION ( 'NONE',  ( 0.7071067811865511300, -0.7071067811865439100, 0.0000000000000000000 ) ) ;
#184 = FACE_OUTER_BOUND ( 'NONE', #210, .T. ) ;
#185 = APPROVAL_STATUS ( 'not_yet_approved' ) ;
#186 = VECTOR ( 'NONE', #301, 1000.000000000000000 ) ;
#187 = EDGE_CURVE ( 'NONE', #122, #138, #169, .T. ) ;
#188 = APPROVAL_ROLE ( '' ) ;
#189 = PRODUCT_RELATED_PRODUCT_CATEGORY ( 'detail', '', ( #99 ) ) ;
#190 = ORIENTED_EDGE ( 'NONE', *, *, #195, .T. ) ;
#191 = VERTEX_POINT ( 'NONE', #202 ) ;
#192 = ADVANCED_FACE ( 'NONE', ( #119 ), #97, .T. ) ;
#193 = ADVANCED_FACE ( 'NONE', ( #17 ), #217, .F. ) ;
#194 = ORIENTED_EDGE ( 'NONE', *, *, #111, .T. ) ;
#195 = EDGE_CURVE ( 'NONE', #257, #317, #197, .T. ) ;
#196 = APPROVAL ( #185, 'UNSPECIFIED' ) ;
#197 = LINE ( 'NONE', #309, #1 ) ;
#198 = ORIENTED_EDGE ( 'NONE', *, *, #226, .T. ) ;
#199 = LOCAL_TIME ( 14, 12, 38.00000000000000000, #50 ) ;
#200 = LINE ( 'NONE', #231, #233 ) ;
#201 = AXIS2_PLACEMENT_3D ( 'NONE', #7, #262, #131 ) ;
#202 = CARTESIAN_POINT ( 'NONE',  ( -24.74873734152929200, 6.911706896877120000E-015, -17.50000000000000400 ) ) ;
#203 = CARTESIAN_POINT ( 'NONE',  ( 24.74873734152929200, -3.025926310689071700E-015, 17.50000000000000000 ) ) ;
#204 = EDGE_CURVE ( 'NONE', #257, #191, #263, .T. ) ;
#205 = PERSON ( 'UNSPECIFIED', 'UNSPECIFIED', 'UNSPECIFIED', ('UNSPECIFIED'), ('UNSPECIFIED'), ('UNSPECIFIED') ) ;
#206 = ADVANCED_FACE ( 'NONE', ( #164 ), #285, .T. ) ;
#207 = DIRECTION ( 'NONE',  ( 0.7071067811865439100, -0.7071067811865512400, 0.0000000000000000000 ) ) ;
#208 = DIRECTION ( 'NONE',  ( -0.7071067811865511300, 0.7071067811865439100, 0.0000000000000000000 ) ) ;
#209 = ORIENTED_EDGE ( 'NONE', *, *, #146, .T. ) ;
#210 = EDGE_LOOP ( 'NONE', ( #59, #218, #31 ) ) ;
#211 = CARTESIAN_POINT ( 'NONE',  ( -1.298504712866985000E-015, -24.74873734152903600, 17.50000000000000400 ) ) ;
#212 = DIRECTION ( 'NONE',  ( 0.0000000000000000000, 2.220446049250312600E-016, -1.000000000000000000 ) ) ;
#213 = LINE ( 'NONE', #303, #44 ) ;
#214 = PLANE ( 'NONE',  #63 ) ;
#215 = DIRECTION ( 'NONE',  ( 0.0000000000000000000, 2.220446049250312600E-016, -1.000000000000000000 ) ) ;
#216 = CARTESIAN_POINT ( 'NONE',  ( -1.298504712866985000E-015, -24.74873734152902900, -17.50000000000000400 ) ) ;
#217 = PLANE ( 'NONE',  #228 ) ;
#218 = ORIENTED_EDGE ( 'NONE', *, *, #152, .F. ) ;
#219 = ORIENTED_EDGE ( 'NONE', *, *, #116, .F. ) ;
#220 = APPROVAL_ROLE ( '' ) ;
#221 = LINE ( 'NONE', #211, #120 ) ;
#222 = ORIENTED_EDGE ( 'NONE', *, *, #98, .F. ) ;
#223 = ORGANIZATION ( 'UNSPECIFIED', 'UNSPECIFIED', '' ) ;
#224 = AXIS2_PLACEMENT_3D ( 'NONE', #179, #136, #37 ) ;
#225 = PRODUCT_DEFINITION_SHAPE ( 'NONE', 'NONE',  #22 ) ;
#226 = EDGE_CURVE ( 'NONE', #154, #144, #294, .T. ) ;
#227 = PERSON_AND_ORGANIZATION ( #205, #223 ) ;
#228 = AXIS2_PLACEMENT_3D ( 'NONE', #81, #304, #286 ) ;
#229 = APPROVAL ( #113, 'UNSPECIFIED' ) ;
#230 = VERTEX_POINT ( 'NONE', #11 ) ;
#231 = CARTESIAN_POINT ( 'NONE',  ( -1.298504712866985000E-015, -24.74873734152902900, -17.50000000000000400 ) ) ;
#232 = PLANE ( 'NONE',  #280 ) ;
#233 = VECTOR ( 'NONE', #124, 1000.000000000000000 ) ;
#234 = ADVANCED_FACE ( 'NONE', ( #260 ), #133, .F. ) ;
#235 = LINE ( 'NONE', #306, #12 ) ;
#236 = DIRECTION ( 'NONE',  ( -1.000000000000000000, 6.113294324740066300E-017, 0.0000000000000000000 ) ) ;
#237 = ORIENTED_EDGE ( 'NONE', *, *, #163, .F. ) ;
#238 = SECURITY_CLASSIFICATION ( '', '', #310 ) ;
#239 = CARTESIAN_POINT ( 'NONE',  ( 24.74873734152929200, -3.025926310689071700E-015, -17.50000000000000000 ) ) ;
#240 =( LENGTH_UNIT ( ) NAMED_UNIT ( * ) SI_UNIT ( .MILLI., .METRE. ) );
#241 = PERSON_AND_ORGANIZATION ( #205, #223 ) ;
#242 = PERSON_AND_ORGANIZATION_ROLE ( 'creator' ) ;
#243 = DATE_AND_TIME ( #141, #149 ) ;
#244 = PERSON_AND_ORGANIZATION_ROLE ( 'classification_officer' ) ;
#245 = FACE_OUTER_BOUND ( 'NONE', #123, .T. ) ;
#246 = SHAPE_DEFINITION_REPRESENTATION ( #225, #316 ) ;
#247 = LINE ( 'NONE', #105, #313 ) ;
#248 = ORIENTED_EDGE ( 'NONE', *, *, #88, .F. ) ;
#249 = ORIENTED_EDGE ( 'NONE', *, *, #72, .T. ) ;
#250 = CC_DESIGN_PERSON_AND_ORGANIZATION_ASSIGNMENT ( #53, #244, ( #238 ) ) ;
#251 = ORIENTED_EDGE ( 'NONE', *, *, #163, .T. ) ;
#252 = CARTESIAN_POINT ( 'NONE',  ( -24.74873734152929200, 0.0000000000000000000, 17.50000000000000000 ) ) ;
#253 = VECTOR ( 'NONE', #40, 1000.000000000000000 ) ;
#254 = CARTESIAN_POINT ( 'NONE',  ( 24.74873734152929200, 3.885780586188047900E-015, -17.50000000000000400 ) ) ;
#255 = CARTESIAN_POINT ( 'NONE',  ( 0.0000000000000000000, 0.0000000000000000000, 17.50000000000000000 ) ) ;
#256 =( NAMED_UNIT ( * ) SI_UNIT ( $, .STERADIAN. ) SOLID_ANGLE_UNIT ( ) );
#257 = VERTEX_POINT ( 'NONE', #57 ) ;
#258 = DIRECTION ( 'NONE',  ( 0.7071067811865512400, 0.7071067811865439100, 0.0000000000000000000 ) ) ;
#259 = PLANE ( 'NONE',  #224 ) ;
#260 = FACE_OUTER_BOUND ( 'NONE', #67, .T. ) ;
#261 = CARTESIAN_POINT ( 'NONE',  ( -24.74873734152929200, 0.0000000000000000000, 17.50000000000000000 ) ) ;
#262 = DIRECTION ( 'NONE',  ( 6.113294324740066300E-017, 1.000000000000000000, -0.0000000000000000000 ) ) ;
#263 = LINE ( 'NONE', #106, #55 ) ;
#264 =( NAMED_UNIT ( * ) PLANE_ANGLE_UNIT ( ) SI_UNIT ( $, .RADIAN. ) );
#265 = LINE ( 'NONE', #178, #118 ) ;
#266 = EDGE_LOOP ( 'NONE', ( #251, #19, #126, #9 ) ) ;
#267 = CC_DESIGN_PERSON_AND_ORGANIZATION_ASSIGNMENT ( #227, #293, ( #121 ) ) ;
#268 = APPLICATION_PROTOCOL_DEFINITION ( 'international standard', 'config_control_design', 1994, #283 ) ;
#269 = LINE ( 'NONE', #38, #298 ) ;
#270 = ADVANCED_FACE ( 'NONE', ( #80 ), #259, .F. ) ;
#271 = EDGE_LOOP ( 'NONE', ( #159, #71, #24, #198 ) ) ;
#272 = LOCAL_TIME ( 14, 12, 38.00000000000000000, #161 ) ;
#273 = VECTOR ( 'NONE', #215, 1000.000000000000000 ) ;
#274 = ORIENTED_EDGE ( 'NONE', *, *, #78, .F. ) ;
#275 = CC_DESIGN_DATE_AND_TIME_ASSIGNMENT ( #295, #18, ( #22 ) ) ;
#276 = FACE_OUTER_BOUND ( 'NONE', #92, .T. ) ;
#277 = DIRECTION ( 'NONE',  ( -1.000000000000000000, 6.113294324740066300E-017, 0.0000000000000000000 ) ) ;
#278 = VECTOR ( 'NONE', #277, 1000.000000000000000 ) ;
#279 = ORIENTED_EDGE ( 'NONE', *, *, #204, .T. ) ;
#280 = AXIS2_PLACEMENT_3D ( 'NONE', #28, #174, #125 ) ;
#281 = CARTESIAN_POINT ( 'NONE',  ( 0.0000000000000000000, -3.885780586188047900E-015, 17.50000000000000400 ) ) ;
#282 = CARTESIAN_POINT ( 'NONE',  ( 1.298504712866985000E-015, 24.74873734152903300, -17.50000000000000000 ) ) ;
#283 = APPLICATION_CONTEXT ( 'configuration controlled 3d designs of mechanical parts and assemblies' ) ;
#284 = CARTESIAN_POINT ( 'NONE',  ( -24.74873734152929200, 0.0000000000000000000, 17.50000000000000000 ) ) ;
#285 = PLANE ( 'NONE',  #74 ) ;
#286 = DIRECTION ( 'NONE',  ( 0.7071067811865511300, -0.7071067811865440200, 0.0000000000000000000 ) ) ;
#287 = LINE ( 'NONE', #288, #186 ) ;
#288 = CARTESIAN_POINT ( 'NONE',  ( -24.74873734152929200, 0.0000000000000000000, -17.50000000000000000 ) ) ;
#289 = DIRECTION ( 'NONE',  ( -1.000000000000000000, 0.0000000000000000000, 0.0000000000000000000 ) ) ;
#290 = APPROVAL_PERSON_ORGANIZATION ( #3, #196, #188 ) ;
#291 = AXIS2_PLACEMENT_3D ( 'NONE', #109, #83, #62 ) ;
#292 = UNCERTAINTY_MEASURE_WITH_UNIT (LENGTH_MEASURE( 1.000000000000000100E-005 ), #240, 'distance_accuracy_value', 'NONE');
#293 = PERSON_AND_ORGANIZATION_ROLE ( 'creator' ) ;
#294 = LINE ( 'NONE', #16, #273 ) ;
#295 = DATE_AND_TIME ( #61, #95 ) ;
#296 = CC_DESIGN_APPROVAL ( #196, ( #121 ) ) ;
#297 = PERSON_AND_ORGANIZATION ( #205, #223 ) ;
#298 = VECTOR ( 'NONE', #58, 1000.000000000000000 ) ;
#299 = EDGE_CURVE ( 'NONE', #27, #46, #235, .T. ) ;
#300 = VECTOR ( 'NONE', #156, 1000.000000000000100 ) ;
#301 = DIRECTION ( 'NONE',  ( 1.000000000000000000, -6.113294324740066300E-017, 0.0000000000000000000 ) ) ;
#302 = CARTESIAN_POINT ( 'NONE',  ( 1.298504712866985000E-015, 24.74873734152903300, 17.50000000000000000 ) ) ;
#303 = CARTESIAN_POINT ( 'NONE',  ( 24.74873734152929200, -3.025926310689071700E-015, 17.50000000000000000 ) ) ;
#304 = DIRECTION ( 'NONE',  ( -0.7071067811865440200, -0.7071067811865511300, 0.0000000000000000000 ) ) ;
#305 = DIRECTION ( 'NONE',  ( 0.7071067811865512400, 0.7071067811865439100, 0.0000000000000000000 ) ) ;
#306 = CARTESIAN_POINT ( 'NONE',  ( 24.74873734152929200, -3.025926310689071700E-015, -17.50000000000000000 ) ) ;
#307 = APPROVAL_DATE_TIME ( #134, #162 ) ;
#308 = DIRECTION ( 'NONE',  ( -0.7071067811865512400, -0.7071067811865439100, 0.0000000000000000000 ) ) ;
#309 = CARTESIAN_POINT ( 'NONE',  ( -24.74873734152929200, -8.598542754989764900E-016, 17.50000000000000400 ) ) ;
#310 = SECURITY_CLASSIFICATION_LEVEL ( 'unclassified' ) ;
#311 = VERTEX_POINT ( 'NONE', #302 ) ;
#312 = APPROVAL_STATUS ( 'not_yet_approved' ) ;
#313 = VECTOR ( 'NONE', #108, 1000.000000000000100 ) ;
#314 = CC_DESIGN_PERSON_AND_ORGANIZATION_ASSIGNMENT ( #90, #33, ( #99 ) ) ;
#315 = ADVANCED_FACE ( 'NONE', ( #276 ), #158, .F. ) ;
#316 = ADVANCED_BREP_SHAPE_REPRESENTATION ( 'Web Model 47571', ( #177, #321, #15 ), #69 ) ;
#317 = VERTEX_POINT ( 'NONE', #181 ) ;
#318 = COORDINATED_UNIVERSAL_TIME_OFFSET ( 5, 0, .BEHIND. ) ;
#319 = VECTOR ( 'NONE', #236, 1000.000000000000000 ) ;
#320 = ORIENTED_EDGE ( 'NONE', *, *, #195, .F. ) ;
#321 = MANIFOLD_SOLID_BREP ( '35x35 Right Angle Prism Master-2-solid1', #132 ) ;
ENDSEC;
END-ISO-10303-21;
