ISO-10303-21;
HEADER;
FILE_DESCRIPTION (( 'STEP AP203' ),
    '1' );
FILE_NAME ('Web Model 14743_14743.step',
    '2020-04-13T13:43:06',
    ( '' ),
    ( '' ),
    'SwSTEP 2.0',
    'SolidWorks 2018',
    '' );
FILE_SCHEMA (( 'CONFIG_CONTROL_DESIGN' ));
ENDSEC;

DATA;
#1 = PRODUCT_RELATED_PRODUCT_CATEGORY ( 'detail', '', ( #112 ) ) ;
#2 = AXIS2_PLACEMENT_3D ( 'NONE', #99, #45, #133 ) ;
#3 = PERSON_AND_ORGANIZATION_ROLE ( 'classification_officer' ) ;
#4 = PERSON ( 'UNSPECIFIED', 'UNSPECIFIED', 'UNSPECIFIED', ('UNSPECIFIED'), ('UNSPECIFIED'), ('UNSPECIFIED') ) ;
#5 = APPROVAL_PERSON_ORGANIZATION ( #128, #67, #20 ) ;
#6 = CARTESIAN_POINT ( 'NONE',  ( -1.500000000000000000, 0.0000000000000000000, 12.69999999999999929 ) ) ;
#7 = FACE_OUTER_BOUND ( 'NONE', #76, .T. ) ;
#8 = ADVANCED_FACE ( 'NONE', ( #120 ), #109, .T. ) ;
#9 = APPROVAL_ROLE ( '' ) ;
#10 = CC_DESIGN_APPROVAL ( #67, ( #107 ) ) ;
#11 = ORIENTED_EDGE ( 'NONE', *, *, #78, .F. ) ;
#12 = ADVANCED_BREP_SHAPE_REPRESENTATION ( 'Web Model 14743_14743', ( #34, #56 ), #90 ) ;
#13 = CARTESIAN_POINT ( 'NONE',  ( -1.500000000000000000, 1.555301434917138433E-15, -12.69999999999999929 ) ) ;
#14 = LOCAL_TIME ( 9, 43, 6.000000000000000000, #24 ) ;
#15 = APPLICATION_CONTEXT ( 'configuration controlled 3d designs of mechanical parts and assemblies' ) ;
#16 = DIRECTION ( 'NONE',  ( 1.000000000000000000, 0.0000000000000000000, 0.0000000000000000000 ) ) ;
#17 = PERSON_AND_ORGANIZATION ( #4, #83 ) ;
#18 = FACE_OUTER_BOUND ( 'NONE', #126, .T. ) ;
#19 = DATE_TIME_ROLE ( 'creation_date' ) ;
#20 = APPROVAL_ROLE ( '' ) ;
#21 = APPROVAL_STATUS ( 'not_yet_approved' ) ;
#22 = LOCAL_TIME ( 9, 43, 6.000000000000000000, #97 ) ;
#23 = ORIENTED_EDGE ( 'NONE', *, *, #35, .T. ) ;
#24 = COORDINATED_UNIVERSAL_TIME_OFFSET ( 5, 0, .BEHIND. ) ;
#25 = PERSON_AND_ORGANIZATION ( #4, #83 ) ;
#26 = CLOSED_SHELL ( 'NONE', ( #150, #139, #8, #69 ) ) ;
#27 = APPROVAL_ROLE ( '' ) ;
#28 = APPROVAL_DATE_TIME ( #70, #67 ) ;
#29 = APPLICATION_CONTEXT ( 'configuration controlled 3d designs of mechanical parts and assemblies' ) ;
#30 = APPLICATION_PROTOCOL_DEFINITION ( 'international standard', 'config_control_design', 1994, #15 ) ;
#31 = DIRECTION ( 'NONE',  ( 1.000000000000000000, 0.0000000000000000000, 0.0000000000000000000 ) ) ;
#32 = LINE ( 'NONE', #131, #105 ) ;
#33 = DATE_AND_TIME ( #43, #166 ) ;
#34 = MANIFOLD_SOLID_BREP ( 'Boss-Extrude1', #26 ) ;
#35 = EDGE_CURVE ( 'NONE', #98, #84, #66, .T. ) ;
#36 = DATE_AND_TIME ( #101, #87 ) ;
#37 = EDGE_CURVE ( 'NONE', #102, #132, #32, .T. ) ;
#38 = ORIENTED_EDGE ( 'NONE', *, *, #134, .F. ) ;
#39 = ORIENTED_EDGE ( 'NONE', *, *, #35, .F. ) ;
#40 = DIRECTION ( 'NONE',  ( 1.000000000000000000, 0.0000000000000000000, 0.0000000000000000000 ) ) ;
#41 = AXIS2_PLACEMENT_3D ( 'NONE', #52, #40, #148 ) ;
#42 =( LENGTH_UNIT ( ) NAMED_UNIT ( * ) SI_UNIT ( .MILLI., .METRE. ) );
#43 = CALENDAR_DATE ( 2020, 13, 4 ) ;
#44 = ORIENTED_EDGE ( 'NONE', *, *, #37, .F. ) ;
#45 = DIRECTION ( 'NONE',  ( 1.000000000000000000, 0.0000000000000000000, 0.0000000000000000000 ) ) ;
#46 = AXIS2_PLACEMENT_3D ( 'NONE', #174, #117, #129 ) ;
#47 = DATE_TIME_ROLE ( 'classification_date' ) ;
#48 = PERSON_AND_ORGANIZATION ( #4, #83 ) ;
#49 = LOCAL_TIME ( 9, 43, 6.000000000000000000, #130 ) ;
#50 = DIRECTION ( 'NONE',  ( 0.0000000000000000000, 0.0000000000000000000, -1.000000000000000000 ) ) ;
#51 = CALENDAR_DATE ( 2020, 13, 4 ) ;
#52 = CARTESIAN_POINT ( 'NONE',  ( 1.500000000000000000, 0.0000000000000000000, 0.0000000000000000000 ) ) ;
#53 = CALENDAR_DATE ( 2020, 13, 4 ) ;
#54 = PLANE ( 'NONE',  #2 ) ;
#55 = CIRCLE ( 'NONE', #79, 12.69999999999999929 ) ;
#56 = AXIS2_PLACEMENT_3D ( 'NONE', #93, #119, #106 ) ;
#57 = APPROVAL_DATE_TIME ( #92, #85 ) ;
#58 = CC_DESIGN_PERSON_AND_ORGANIZATION_ASSIGNMENT ( #25, #103, ( #136 ) ) ;
#59 = COORDINATED_UNIVERSAL_TIME_OFFSET ( 5, 0, .BEHIND. ) ;
#60 = CYLINDRICAL_SURFACE ( 'NONE', #46, 12.69999999999999929 ) ;
#61 = FACE_OUTER_BOUND ( 'NONE', #170, .T. ) ;
#62 = CARTESIAN_POINT ( 'NONE',  ( 1.500000000000000000, 0.0000000000000000000, 0.0000000000000000000 ) ) ;
#63 = CARTESIAN_POINT ( 'NONE',  ( 1.500000000000000000, 1.555301434917138433E-15, -12.69999999999999929 ) ) ;
#64 = CC_DESIGN_PERSON_AND_ORGANIZATION_ASSIGNMENT ( #113, #95, ( #112 ) ) ;
#65 = APPROVAL_STATUS ( 'not_yet_approved' ) ;
#66 = LINE ( 'NONE', #138, #88 ) ;
#67 = APPROVAL ( #21, 'UNSPECIFIED' ) ;
#68 = CC_DESIGN_DATE_AND_TIME_ASSIGNMENT ( #33, #47, ( #107 ) ) ;
#69 = ADVANCED_FACE ( 'NONE', ( #7 ), #54, .F. ) ;
#70 = DATE_AND_TIME ( #51, #49 ) ;
#71 = ORIENTED_EDGE ( 'NONE', *, *, #140, .T. ) ;
#72 = ORIENTED_EDGE ( 'NONE', *, *, #155, .F. ) ;
#73 = CC_DESIGN_APPROVAL ( #82, ( #136 ) ) ;
#74 = PRODUCT_DEFINITION ( 'UNKNOWN', '', #136, #123 ) ;
#75 = APPROVAL_DATE_TIME ( #36, #82 ) ;
#76 = EDGE_LOOP ( 'NONE', ( #38, #11 ) ) ;
#77 = DIRECTION ( 'NONE',  ( 0.0000000000000000000, 0.0000000000000000000, 1.000000000000000000 ) ) ;
#78 = EDGE_CURVE ( 'NONE', #132, #84, #167, .T. ) ;
#79 = AXIS2_PLACEMENT_3D ( 'NONE', #144, #16, #50 ) ;
#80 = DIRECTION ( 'NONE',  ( 0.0000000000000000000, 0.0000000000000000000, -1.000000000000000000 ) ) ;
#81 = EDGE_LOOP ( 'NONE', ( #175, #71 ) ) ;
#82 = APPROVAL ( #122, 'UNSPECIFIED' ) ;
#83 = ORGANIZATION ( 'UNSPECIFIED', 'UNSPECIFIED', '' ) ;
#84 = VERTEX_POINT ( 'NONE', #6 ) ;
#85 = APPROVAL ( #65, 'UNSPECIFIED' ) ;
#86 = PERSON_AND_ORGANIZATION_ROLE ( 'creator' ) ;
#87 = LOCAL_TIME ( 9, 43, 6.000000000000000000, #149 ) ;
#88 = VECTOR ( 'NONE', #151, 1000.000000000000000 ) ;
#89 = SHAPE_DEFINITION_REPRESENTATION ( #143, #12 ) ;
#90 =( GEOMETRIC_REPRESENTATION_CONTEXT ( 3 ) GLOBAL_UNCERTAINTY_ASSIGNED_CONTEXT ( ( #125 ) ) GLOBAL_UNIT_ASSIGNED_CONTEXT ( ( #42, #169, #142 ) ) REPRESENTATION_CONTEXT ( 'NONE', 'WORKASPACE' ) );
#91 = CC_DESIGN_PERSON_AND_ORGANIZATION_ASSIGNMENT ( #157, #137, ( #136 ) ) ;
#92 = DATE_AND_TIME ( #53, #14 ) ;
#93 = CARTESIAN_POINT ( 'NONE',  ( 0.0000000000000000000, 0.0000000000000000000, 0.0000000000000000000 ) ) ;
#94 = CC_DESIGN_APPROVAL ( #85, ( #74 ) ) ;
#95 = PERSON_AND_ORGANIZATION_ROLE ( 'design_owner' ) ;
#96 = CARTESIAN_POINT ( 'NONE',  ( 1.500000000000000000, 0.0000000000000000000, 0.0000000000000000000 ) ) ;
#97 = COORDINATED_UNIVERSAL_TIME_OFFSET ( 5, 0, .BEHIND. ) ;
#98 = VERTEX_POINT ( 'NONE', #164 ) ;
#99 = CARTESIAN_POINT ( 'NONE',  ( -1.500000000000000000, 0.0000000000000000000, 0.0000000000000000000 ) ) ;
#100 = APPROVAL_PERSON_ORGANIZATION ( #146, #85, #27 ) ;
#101 = CALENDAR_DATE ( 2020, 13, 4 ) ;
#102 = VERTEX_POINT ( 'NONE', #63 ) ;
#103 = PERSON_AND_ORGANIZATION_ROLE ( 'creator' ) ;
#104 = ORIENTED_EDGE ( 'NONE', *, *, #134, .T. ) ;
#105 = VECTOR ( 'NONE', #121, 1000.000000000000000 ) ;
#106 = DIRECTION ( 'NONE',  ( 1.000000000000000000, 0.0000000000000000000, 0.0000000000000000000 ) ) ;
#107 = SECURITY_CLASSIFICATION ( '', '', #152 ) ;
#108 = CARTESIAN_POINT ( 'NONE',  ( 1.500000000000000000, 0.0000000000000000000, 0.0000000000000000000 ) ) ;
#109 = PLANE ( 'NONE',  #154 ) ;
#110 = CALENDAR_DATE ( 2020, 13, 4 ) ;
#111 = ORIENTED_EDGE ( 'NONE', *, *, #140, .F. ) ;
#112 = PRODUCT ( 'Web Model 14743_14743', 'Web Model 14743_14743', '', ( #173 ) ) ;
#113 = PERSON_AND_ORGANIZATION ( #4, #83 ) ;
#114 = CC_DESIGN_PERSON_AND_ORGANIZATION_ASSIGNMENT ( #48, #3, ( #107 ) ) ;
#115 = APPROVAL_PERSON_ORGANIZATION ( #165, #82, #9 ) ;
#116 = DIRECTION ( 'NONE',  ( 1.000000000000000000, 0.0000000000000000000, 0.0000000000000000000 ) ) ;
#117 = DIRECTION ( 'NONE',  ( -1.000000000000000000, -0.0000000000000000000, -0.0000000000000000000 ) ) ;
#118 = CC_DESIGN_PERSON_AND_ORGANIZATION_ASSIGNMENT ( #17, #86, ( #74 ) ) ;
#119 = DIRECTION ( 'NONE',  ( 0.0000000000000000000, 0.0000000000000000000, 1.000000000000000000 ) ) ;
#120 = FACE_OUTER_BOUND ( 'NONE', #81, .T. ) ;
#121 = DIRECTION ( 'NONE',  ( -1.000000000000000000, -0.0000000000000000000, -0.0000000000000000000 ) ) ;
#122 = APPROVAL_STATUS ( 'not_yet_approved' ) ;
#123 = DESIGN_CONTEXT ( 'detailed design', #15, 'design' ) ;
#124 = CYLINDRICAL_SURFACE ( 'NONE', #168, 12.69999999999999929 ) ;
#125 = UNCERTAINTY_MEASURE_WITH_UNIT (LENGTH_MEASURE( 1.000000000000000082E-05 ), #42, 'distance_accuracy_value', 'NONE');
#126 = EDGE_LOOP ( 'NONE', ( #111, #141, #147, #39 ) ) ;
#127 = DIRECTION ( 'NONE',  ( 1.000000000000000000, 0.0000000000000000000, 0.0000000000000000000 ) ) ;
#128 = PERSON_AND_ORGANIZATION ( #4, #83 ) ;
#129 = DIRECTION ( 'NONE',  ( 0.0000000000000000000, 0.0000000000000000000, 1.000000000000000000 ) ) ;
#130 = COORDINATED_UNIVERSAL_TIME_OFFSET ( 5, 0, .BEHIND. ) ;
#131 = CARTESIAN_POINT ( 'NONE',  ( 1.500000000000000000, 1.555301434917138433E-15, -12.69999999999999929 ) ) ;
#132 = VERTEX_POINT ( 'NONE', #13 ) ;
#133 = DIRECTION ( 'NONE',  ( 0.0000000000000000000, 0.0000000000000000000, -1.000000000000000000 ) ) ;
#134 = EDGE_CURVE ( 'NONE', #84, #132, #55, .T. ) ;
#135 = CIRCLE ( 'NONE', #162, 12.69999999999999929 ) ;
#136 = PRODUCT_DEFINITION_FORMATION_WITH_SPECIFIED_SOURCE ( 'ANY', '', #112, .NOT_KNOWN. ) ;
#137 = PERSON_AND_ORGANIZATION_ROLE ( 'design_supplier' ) ;
#138 = CARTESIAN_POINT ( 'NONE',  ( 1.500000000000000000, 0.0000000000000000000, 12.69999999999999929 ) ) ;
#139 = ADVANCED_FACE ( 'NONE', ( #61 ), #124, .T. ) ;
#140 = EDGE_CURVE ( 'NONE', #102, #98, #135, .T. ) ;
#141 = ORIENTED_EDGE ( 'NONE', *, *, #37, .T. ) ;
#142 =( NAMED_UNIT ( * ) SI_UNIT ( $, .STERADIAN. ) SOLID_ANGLE_UNIT ( ) );
#143 = PRODUCT_DEFINITION_SHAPE ( 'NONE', 'NONE',  #74 ) ;
#144 = CARTESIAN_POINT ( 'NONE',  ( -1.500000000000000000, 0.0000000000000000000, 0.0000000000000000000 ) ) ;
#145 = CARTESIAN_POINT ( 'NONE',  ( -1.500000000000000000, 0.0000000000000000000, 0.0000000000000000000 ) ) ;
#146 = PERSON_AND_ORGANIZATION ( #4, #83 ) ;
#147 = ORIENTED_EDGE ( 'NONE', *, *, #78, .T. ) ;
#148 = DIRECTION ( 'NONE',  ( 0.0000000000000000000, 0.0000000000000000000, -1.000000000000000000 ) ) ;
#149 = COORDINATED_UNIVERSAL_TIME_OFFSET ( 5, 0, .BEHIND. ) ;
#150 = ADVANCED_FACE ( 'NONE', ( #18 ), #60, .T. ) ;
#151 = DIRECTION ( 'NONE',  ( -1.000000000000000000, -0.0000000000000000000, -0.0000000000000000000 ) ) ;
#152 = SECURITY_CLASSIFICATION_LEVEL ( 'unclassified' ) ;
#153 = CIRCLE ( 'NONE', #41, 12.69999999999999929 ) ;
#154 = AXIS2_PLACEMENT_3D ( 'NONE', #108, #31, #161 ) ;
#155 = EDGE_CURVE ( 'NONE', #98, #102, #153, .T. ) ;
#156 = CC_DESIGN_SECURITY_CLASSIFICATION ( #107, ( #136 ) ) ;
#157 = PERSON_AND_ORGANIZATION ( #4, #83 ) ;
#158 = DATE_AND_TIME ( #110, #22 ) ;
#159 = APPLICATION_PROTOCOL_DEFINITION ( 'international standard', 'config_control_design', 1994, #29 ) ;
#160 = DIRECTION ( 'NONE',  ( -1.000000000000000000, -0.0000000000000000000, -0.0000000000000000000 ) ) ;
#161 = DIRECTION ( 'NONE',  ( 0.0000000000000000000, 0.0000000000000000000, -1.000000000000000000 ) ) ;
#162 = AXIS2_PLACEMENT_3D ( 'NONE', #62, #127, #80 ) ;
#163 = AXIS2_PLACEMENT_3D ( 'NONE', #145, #116, #172 ) ;
#164 = CARTESIAN_POINT ( 'NONE',  ( 1.500000000000000000, 0.0000000000000000000, 12.69999999999999929 ) ) ;
#165 = PERSON_AND_ORGANIZATION ( #4, #83 ) ;
#166 = LOCAL_TIME ( 9, 43, 6.000000000000000000, #59 ) ;
#167 = CIRCLE ( 'NONE', #163, 12.69999999999999929 ) ;
#168 = AXIS2_PLACEMENT_3D ( 'NONE', #96, #160, #77 ) ;
#169 =( NAMED_UNIT ( * ) PLANE_ANGLE_UNIT ( ) SI_UNIT ( $, .RADIAN. ) );
#170 = EDGE_LOOP ( 'NONE', ( #44, #72, #23, #104 ) ) ;
#171 = CC_DESIGN_DATE_AND_TIME_ASSIGNMENT ( #158, #19, ( #74 ) ) ;
#172 = DIRECTION ( 'NONE',  ( 0.0000000000000000000, 0.0000000000000000000, -1.000000000000000000 ) ) ;
#173 = MECHANICAL_CONTEXT ( 'NONE', #29, 'mechanical' ) ;
#174 = CARTESIAN_POINT ( 'NONE',  ( 1.500000000000000000, 0.0000000000000000000, 0.0000000000000000000 ) ) ;
#175 = ORIENTED_EDGE ( 'NONE', *, *, #155, .T. ) ;
ENDSEC;
END-ISO-10303-21;
