ISO-10303-21;
HEADER;
FILE_DESCRIPTION (( 'STEP AP203' ),
    '1' );
FILE_NAME ('Web Model 68735_83348.step',
    '2017-03-06T18:39:16',
    ( '' ),
    ( '' ),
    'SwSTEP 2.0',
    'SolidWorks 2016',
    '' );
FILE_SCHEMA (( 'CONFIG_CONTROL_DESIGN' ));
ENDSEC;

DATA;
#1 = EDGE_LOOP ( 'NONE', ( #77, #54 ) ) ;
#2 = EDGE_CURVE ( 'NONE', #101, #34, #91, .T. ) ;
#3 = CC_DESIGN_SECURITY_CLASSIFICATION ( #49, ( #98 ) ) ;
#4 = VECTOR ( 'NONE', #158, 1000.000000000000000 ) ;
#5 = ADVANCED_FACE ( 'NONE', ( #47 ), #71, .T. ) ;
#6 = CARTESIAN_POINT ( 'NONE',  ( 3.000000000000000000, 0.0000000000000000000, 0.0000000000000000000 ) ) ;
#7 = PERSON_AND_ORGANIZATION ( #151, #100 ) ;
#8 = PERSON_AND_ORGANIZATION_ROLE ( 'creator' ) ;
#9 = CIRCLE ( 'NONE', #66, 6.250000000000000000 ) ;
#10 = PRODUCT ( 'Web Model 68735_83348', 'Web Model 68735_83348', '', ( #115 ) ) ;
#11 = DIRECTION ( 'NONE',  ( -1.000000000000000000, -0.0000000000000000000, -0.0000000000000000000 ) ) ;
#12 = AXIS2_PLACEMENT_3D ( 'NONE', #40, #137, #125 ) ;
#13 = PERSON_AND_ORGANIZATION_ROLE ( 'classification_officer' ) ;
#14 = CC_DESIGN_APPROVAL ( #22, ( #49 ) ) ;
#15 = COORDINATED_UNIVERSAL_TIME_OFFSET ( 5, 0, .BEHIND. ) ;
#16 = SECURITY_CLASSIFICATION_LEVEL ( 'unclassified' ) ;
#17 = PRODUCT_DEFINITION_SHAPE ( 'NONE', 'NONE',  #89 ) ;
#18 = APPROVAL_STATUS ( 'not_yet_approved' ) ;
#19 = CALENDAR_DATE ( 2017, 6, 3 ) ;
#20 = ORIENTED_EDGE ( 'NONE', *, *, #2, .T. ) ;
#21 = AXIS2_PLACEMENT_3D ( 'NONE', #61, #25, #33 ) ;
#22 = APPROVAL ( #149, 'UNSPECIFIED' ) ;
#23 = DIRECTION ( 'NONE',  ( 1.000000000000000000, 0.0000000000000000000, 0.0000000000000000000 ) ) ;
#24 = ADVANCED_FACE ( 'NONE', ( #155 ), #165, .T. ) ;
#25 = DIRECTION ( 'NONE',  ( 1.000000000000000000, 0.0000000000000000000, 0.0000000000000000000 ) ) ;
#26 = CALENDAR_DATE ( 2017, 6, 3 ) ;
#27 = APPROVAL_DATE_TIME ( #171, #22 ) ;
#28 = PERSON_AND_ORGANIZATION_ROLE ( 'design_owner' ) ;
#29 = EDGE_LOOP ( 'NONE', ( #153, #123, #121, #75 ) ) ;
#30 =( NAMED_UNIT ( * ) SI_UNIT ( $, .STERADIAN. ) SOLID_ANGLE_UNIT ( ) );
#31 = CLOSED_SHELL ( 'NONE', ( #24, #126, #5, #118 ) ) ;
#32 = PERSON_AND_ORGANIZATION_ROLE ( 'creator' ) ;
#33 = DIRECTION ( 'NONE',  ( 0.0000000000000000000, 0.0000000000000000000, -1.000000000000000000 ) ) ;
#34 = VERTEX_POINT ( 'NONE', #60 ) ;
#35 = CC_DESIGN_DATE_AND_TIME_ASSIGNMENT ( #104, #59, ( #49 ) ) ;
#36 = PERSON_AND_ORGANIZATION_ROLE ( 'design_supplier' ) ;
#37 = LINE ( 'NONE', #46, #4 ) ;
#38 = ORIENTED_EDGE ( 'NONE', *, *, #160, .T. ) ;
#39 = CARTESIAN_POINT ( 'NONE',  ( 3.000000000000000000, 0.0000000000000000000, 0.0000000000000000000 ) ) ;
#40 = CARTESIAN_POINT ( 'NONE',  ( 3.000000000000000000, 0.0000000000000000000, 0.0000000000000000000 ) ) ;
#41 = PERSON_AND_ORGANIZATION ( #151, #100 ) ;
#42 = ORIENTED_EDGE ( 'NONE', *, *, #166, .T. ) ;
#43 =( NAMED_UNIT ( * ) PLANE_ANGLE_UNIT ( ) SI_UNIT ( $, .RADIAN. ) );
#44 = AXIS2_PLACEMENT_3D ( 'NONE', #129, #141, #93 ) ;
#45 = CC_DESIGN_PERSON_AND_ORGANIZATION_ASSIGNMENT ( #110, #13, ( #49 ) ) ;
#46 = CARTESIAN_POINT ( 'NONE',  ( 3.000000000000000000, 0.0000000000000000000, 6.250000000000000000 ) ) ;
#47 = FACE_OUTER_BOUND ( 'NONE', #157, .T. ) ;
#48 = COORDINATED_UNIVERSAL_TIME_OFFSET ( 5, 0, .BEHIND. ) ;
#49 = SECURITY_CLASSIFICATION ( '', '', #16 ) ;
#50 = CARTESIAN_POINT ( 'NONE',  ( 0.0000000000000000000, 0.0000000000000000000, 0.0000000000000000000 ) ) ;
#51 = DIRECTION ( 'NONE',  ( 1.000000000000000000, 0.0000000000000000000, 0.0000000000000000000 ) ) ;
#52 = CALENDAR_DATE ( 2017, 6, 3 ) ;
#53 = SHAPE_DEFINITION_REPRESENTATION ( #17, #81 ) ;
#54 = ORIENTED_EDGE ( 'NONE', *, *, #160, .F. ) ;
#55 = APPLICATION_PROTOCOL_DEFINITION ( 'international standard', 'config_control_design', 1994, #92 ) ;
#56 = DIRECTION ( 'NONE',  ( 1.000000000000000000, 0.0000000000000000000, 0.0000000000000000000 ) ) ;
#57 = PERSON_AND_ORGANIZATION ( #151, #100 ) ;
#58 = EDGE_LOOP ( 'NONE', ( #140, #42, #38, #72 ) ) ;
#59 = DATE_TIME_ROLE ( 'classification_date' ) ;
#60 = CARTESIAN_POINT ( 'NONE',  ( 3.000000000000000000, 7.654042494670957600E-016, -6.250000000000000000 ) ) ;
#61 = CARTESIAN_POINT ( 'NONE',  ( 3.000000000000000000, 0.0000000000000000000, 0.0000000000000000000 ) ) ;
#62 = PERSON_AND_ORGANIZATION ( #151, #100 ) ;
#63 = CARTESIAN_POINT ( 'NONE',  ( 0.0000000000000000000, 0.0000000000000000000, 0.0000000000000000000 ) ) ;
#64 = CC_DESIGN_PERSON_AND_ORGANIZATION_ASSIGNMENT ( #62, #36, ( #98 ) ) ;
#65 = LOCAL_TIME ( 13, 39, 16.00000000000000000, #15 ) ;
#66 = AXIS2_PLACEMENT_3D ( 'NONE', #82, #78, #73 ) ;
#67 = CARTESIAN_POINT ( 'NONE',  ( 3.000000000000000000, 7.654042494670957600E-016, -6.250000000000000000 ) ) ;
#68 = DIRECTION ( 'NONE',  ( 0.0000000000000000000, 0.0000000000000000000, -1.000000000000000000 ) ) ;
#69 = COORDINATED_UNIVERSAL_TIME_OFFSET ( 5, 0, .BEHIND. ) ;
#70 = APPROVAL_PERSON_ORGANIZATION ( #7, #112, #139 ) ;
#71 = PLANE ( 'NONE',  #109 ) ;
#72 = ORIENTED_EDGE ( 'NONE', *, *, #146, .F. ) ;
#73 = DIRECTION ( 'NONE',  ( 0.0000000000000000000, 0.0000000000000000000, -1.000000000000000000 ) ) ;
#74 = CC_DESIGN_PERSON_AND_ORGANIZATION_ASSIGNMENT ( #168, #32, ( #98 ) ) ;
#75 = ORIENTED_EDGE ( 'NONE', *, *, #156, .T. ) ;
#76 = APPLICATION_PROTOCOL_DEFINITION ( 'international standard', 'config_control_design', 1994, #86 ) ;
#77 = ORIENTED_EDGE ( 'NONE', *, *, #156, .F. ) ;
#78 = DIRECTION ( 'NONE',  ( 1.000000000000000000, 0.0000000000000000000, 0.0000000000000000000 ) ) ;
#79 = APPROVAL_DATE_TIME ( #133, #117 ) ;
#80 = CIRCLE ( 'NONE', #12, 6.250000000000000000 ) ;
#81 = ADVANCED_BREP_SHAPE_REPRESENTATION ( 'Web Model 68735_83348', ( #87, #167 ), #143 ) ;
#82 = CARTESIAN_POINT ( 'NONE',  ( 0.0000000000000000000, 0.0000000000000000000, 0.0000000000000000000 ) ) ;
#83 = CC_DESIGN_APPROVAL ( #117, ( #98 ) ) ;
#84 = ORIENTED_EDGE ( 'NONE', *, *, #136, .T. ) ;
#85 = APPROVAL_DATE_TIME ( #106, #112 ) ;
#86 = APPLICATION_CONTEXT ( 'configuration controlled 3d designs of mechanical parts and assemblies' ) ;
#87 = MANIFOLD_SOLID_BREP ( 'Extrude1', #31 ) ;
#88 = COORDINATED_UNIVERSAL_TIME_OFFSET ( 5, 0, .BEHIND. ) ;
#89 = PRODUCT_DEFINITION ( 'UNKNOWN', '', #98, #95 ) ;
#90 = DIRECTION ( 'NONE',  ( -1.000000000000000000, -0.0000000000000000000, -0.0000000000000000000 ) ) ;
#91 = CIRCLE ( 'NONE', #21, 6.250000000000000000 ) ;
#92 = APPLICATION_CONTEXT ( 'configuration controlled 3d designs of mechanical parts and assemblies' ) ;
#93 = DIRECTION ( 'NONE',  ( 0.0000000000000000000, 0.0000000000000000000, -1.000000000000000000 ) ) ;
#94 = CARTESIAN_POINT ( 'NONE',  ( 0.0000000000000000000, 0.0000000000000000000, 6.250000000000000000 ) ) ;
#95 = DESIGN_CONTEXT ( 'detailed design', #86, 'design' ) ;
#96 = CC_DESIGN_PERSON_AND_ORGANIZATION_ASSIGNMENT ( #142, #8, ( #89 ) ) ;
#97 = COORDINATED_UNIVERSAL_TIME_OFFSET ( 5, 0, .BEHIND. ) ;
#98 = PRODUCT_DEFINITION_FORMATION_WITH_SPECIFIED_SOURCE ( 'ANY', '', #10, .NOT_KNOWN. ) ;
#99 = CALENDAR_DATE ( 2017, 6, 3 ) ;
#100 = ORGANIZATION ( 'UNSPECIFIED', 'UNSPECIFIED', '' ) ;
#101 = VERTEX_POINT ( 'NONE', #134 ) ;
#102 = VERTEX_POINT ( 'NONE', #162 ) ;
#103 = VERTEX_POINT ( 'NONE', #94 ) ;
#104 = DATE_AND_TIME ( #26, #170 ) ;
#105 = CC_DESIGN_DATE_AND_TIME_ASSIGNMENT ( #124, #132, ( #89 ) ) ;
#106 = DATE_AND_TIME ( #52, #164 ) ;
#107 = APPROVAL_PERSON_ORGANIZATION ( #57, #117, #159 ) ;
#108 = DIRECTION ( 'NONE',  ( 0.0000000000000000000, 0.0000000000000000000, 1.000000000000000000 ) ) ;
#109 = AXIS2_PLACEMENT_3D ( 'NONE', #6, #51, #154 ) ;
#110 = PERSON_AND_ORGANIZATION ( #151, #100 ) ;
#111 = CIRCLE ( 'NONE', #138, 6.250000000000000000 ) ;
#112 = APPROVAL ( #18, 'UNSPECIFIED' ) ;
#113 =( LENGTH_UNIT ( ) NAMED_UNIT ( * ) SI_UNIT ( .MILLI., .METRE. ) );
#114 = LOCAL_TIME ( 13, 39, 16.00000000000000000, #69 ) ;
#115 = MECHANICAL_CONTEXT ( 'NONE', #92, 'mechanical' ) ;
#116 = DIRECTION ( 'NONE',  ( -1.000000000000000000, -0.0000000000000000000, -0.0000000000000000000 ) ) ;
#117 = APPROVAL ( #122, 'UNSPECIFIED' ) ;
#118 = ADVANCED_FACE ( 'NONE', ( #175 ), #173, .F. ) ;
#119 = CC_DESIGN_APPROVAL ( #112, ( #89 ) ) ;
#120 = DIRECTION ( 'NONE',  ( 0.0000000000000000000, 0.0000000000000000000, 1.000000000000000000 ) ) ;
#121 = ORIENTED_EDGE ( 'NONE', *, *, #146, .T. ) ;
#122 = APPROVAL_STATUS ( 'not_yet_approved' ) ;
#123 = ORIENTED_EDGE ( 'NONE', *, *, #2, .F. ) ;
#124 = DATE_AND_TIME ( #99, #65 ) ;
#125 = DIRECTION ( 'NONE',  ( 0.0000000000000000000, 0.0000000000000000000, -1.000000000000000000 ) ) ;
#126 = ADVANCED_FACE ( 'NONE', ( #130 ), #150, .T. ) ;
#127 = AXIS2_PLACEMENT_3D ( 'NONE', #39, #11, #108 ) ;
#128 = LINE ( 'NONE', #67, #147 ) ;
#129 = CARTESIAN_POINT ( 'NONE',  ( 0.0000000000000000000, 0.0000000000000000000, 0.0000000000000000000 ) ) ;
#130 = FACE_OUTER_BOUND ( 'NONE', #29, .T. ) ;
#131 = AXIS2_PLACEMENT_3D ( 'NONE', #135, #116, #172 ) ;
#132 = DATE_TIME_ROLE ( 'creation_date' ) ;
#133 = DATE_AND_TIME ( #19, #163 ) ;
#134 = CARTESIAN_POINT ( 'NONE',  ( 3.000000000000000000, 0.0000000000000000000, 6.250000000000000000 ) ) ;
#135 = CARTESIAN_POINT ( 'NONE',  ( 3.000000000000000000, 0.0000000000000000000, 0.0000000000000000000 ) ) ;
#136 = EDGE_CURVE ( 'NONE', #34, #101, #80, .T. ) ;
#137 = DIRECTION ( 'NONE',  ( 1.000000000000000000, 0.0000000000000000000, 0.0000000000000000000 ) ) ;
#138 = AXIS2_PLACEMENT_3D ( 'NONE', #63, #56, #68 ) ;
#139 = APPROVAL_ROLE ( '' ) ;
#140 = ORIENTED_EDGE ( 'NONE', *, *, #136, .F. ) ;
#141 = DIRECTION ( 'NONE',  ( 1.000000000000000000, 0.0000000000000000000, 0.0000000000000000000 ) ) ;
#142 = PERSON_AND_ORGANIZATION ( #151, #100 ) ;
#143 =( GEOMETRIC_REPRESENTATION_CONTEXT ( 3 ) GLOBAL_UNCERTAINTY_ASSIGNED_CONTEXT ( ( #145 ) ) GLOBAL_UNIT_ASSIGNED_CONTEXT ( ( #113, #43, #30 ) ) REPRESENTATION_CONTEXT ( 'NONE', 'WORKASPACE' ) );
#144 = CALENDAR_DATE ( 2017, 6, 3 ) ;
#145 = UNCERTAINTY_MEASURE_WITH_UNIT (LENGTH_MEASURE( 1.000000000000000100E-005 ), #113, 'distance_accuracy_value', 'NONE');
#146 = EDGE_CURVE ( 'NONE', #101, #103, #37, .T. ) ;
#147 = VECTOR ( 'NONE', #90, 1000.000000000000000 ) ;
#148 = PRODUCT_RELATED_PRODUCT_CATEGORY ( 'detail', '', ( #10 ) ) ;
#149 = APPROVAL_STATUS ( 'not_yet_approved' ) ;
#150 = CYLINDRICAL_SURFACE ( 'NONE', #131, 6.250000000000000000 ) ;
#151 = PERSON ( 'UNSPECIFIED', 'UNSPECIFIED', 'UNSPECIFIED', ('UNSPECIFIED'), ('UNSPECIFIED'), ('UNSPECIFIED') ) ;
#152 = APPROVAL_ROLE ( '' ) ;
#153 = ORIENTED_EDGE ( 'NONE', *, *, #166, .F. ) ;
#154 = DIRECTION ( 'NONE',  ( 0.0000000000000000000, 0.0000000000000000000, -1.000000000000000000 ) ) ;
#155 = FACE_OUTER_BOUND ( 'NONE', #58, .T. ) ;
#156 = EDGE_CURVE ( 'NONE', #103, #102, #9, .T. ) ;
#157 = EDGE_LOOP ( 'NONE', ( #20, #84 ) ) ;
#158 = DIRECTION ( 'NONE',  ( -1.000000000000000000, -0.0000000000000000000, -0.0000000000000000000 ) ) ;
#159 = APPROVAL_ROLE ( '' ) ;
#160 = EDGE_CURVE ( 'NONE', #102, #103, #111, .T. ) ;
#161 = PERSON_AND_ORGANIZATION ( #151, #100 ) ;
#162 = CARTESIAN_POINT ( 'NONE',  ( 0.0000000000000000000, 7.654042494670957600E-016, -6.250000000000000000 ) ) ;
#163 = LOCAL_TIME ( 13, 39, 16.00000000000000000, #97 ) ;
#164 = LOCAL_TIME ( 13, 39, 16.00000000000000000, #48 ) ;
#165 = CYLINDRICAL_SURFACE ( 'NONE', #127, 6.250000000000000000 ) ;
#166 = EDGE_CURVE ( 'NONE', #34, #102, #128, .T. ) ;
#167 = AXIS2_PLACEMENT_3D ( 'NONE', #50, #120, #23 ) ;
#168 = PERSON_AND_ORGANIZATION ( #151, #100 ) ;
#169 = APPROVAL_PERSON_ORGANIZATION ( #41, #22, #152 ) ;
#170 = LOCAL_TIME ( 13, 39, 16.00000000000000000, #88 ) ;
#171 = DATE_AND_TIME ( #144, #114 ) ;
#172 = DIRECTION ( 'NONE',  ( 0.0000000000000000000, 0.0000000000000000000, 1.000000000000000000 ) ) ;
#173 = PLANE ( 'NONE',  #44 ) ;
#174 = CC_DESIGN_PERSON_AND_ORGANIZATION_ASSIGNMENT ( #161, #28, ( #10 ) ) ;
#175 = FACE_OUTER_BOUND ( 'NONE', #1, .T. ) ;
ENDSEC;
END-ISO-10303-21;
