ISO-10303-21;
HEADER;
FILE_DESCRIPTION (( 'STEP AP203' ),
    '1' );
FILE_NAME ('TTN099126-E0W.STEP',
    '2019-12-09T20:54:59',
    ( '' ),
    ( '' ),
    'SwSTEP 2.0',
    'SolidWorks 2018',
    '' );
FILE_SCHEMA (( 'CONFIG_CONTROL_DESIGN' ));
ENDSEC;

DATA;
#1 = AXIS2_PLACEMENT_3D ( 'NONE', #31, #252, #195 ) ;
#2 = ADVANCED_FACE ( 'NONE', ( #160 ), #284, .T. ) ;
#3 = ADVANCED_BREP_SHAPE_REPRESENTATION ( 'TTN099126-E0W', ( #112, #183 ), #121 ) ;
#4 = CLOSED_SHELL ( 'NONE', ( #7, #26, #2, #124, #10, #281, #98, #186, #211 ) ) ;
#5 = ORIENTED_EDGE ( 'NONE', *, *, #38, .F. ) ;
#6 = CIRCLE ( 'NONE', #48, 12.50000000000000000 ) ;
#7 = ADVANCED_FACE ( 'NONE', ( #116 ), #164, .T. ) ;
#8 = APPROVAL_PERSON_ORGANIZATION ( #243, #74, #268 ) ;
#9 = EDGE_CURVE ( 'NONE', #52, #198, #46, .T. ) ;
#10 = ADVANCED_FACE ( 'NONE', ( #95 ), #222, .T. ) ;
#11 = CARTESIAN_POINT ( 'NONE',  ( 0.0000000000000000000, 3.332974643749259293E-14, -0.8299999999978836529 ) ) ;
#12 = UNCERTAINTY_MEASURE_WITH_UNIT (LENGTH_MEASURE( 1.000000000000000082E-05 ), #178, 'distance_accuracy_value', 'NONE');
#13 = CARTESIAN_POINT ( 'NONE',  ( 0.0000000000000000000, 3.006845120984740068E-13, 0.7743012278270523518 ) ) ;
#14 = CARTESIAN_POINT ( 'NONE',  ( 0.0000000000000000000, 12.50000000000000000, 0.9743012278249362224 ) ) ;
#15 = PERSON_AND_ORGANIZATION ( #248, #237 ) ;
#16 = CARTESIAN_POINT ( 'NONE',  ( 0.0000000000000000000, 1.715198354439867410E-13, -1401.632000000000289 ) ) ;
#17 = AXIS2_PLACEMENT_3D ( 'NONE', #181, #159, #236 ) ;
#18 = CARTESIAN_POINT ( 'NONE',  ( 1.543054966925626421E-15, -12.49999999999933031, 0.9743012278291023343 ) ) ;
#19 = COORDINATED_UNIVERSAL_TIME_OFFSET ( 5, 0, .BEHIND. ) ;
#20 = ORIENTED_EDGE ( 'NONE', *, *, #78, .T. ) ;
#21 = VECTOR ( 'NONE', #169, 1000.000000000000000 ) ;
#22 = VERTEX_POINT ( 'NONE', #32 ) ;
#23 = AXIS2_PLACEMENT_3D ( 'NONE', #192, #27, #103 ) ;
#24 = LOCAL_TIME ( 15, 54, 59.00000000000000000, #204 ) ;
#25 = EDGE_CURVE ( 'NONE', #180, #22, #102, .T. ) ;
#26 = ADVANCED_FACE ( 'NONE', ( #233 ), #86, .T. ) ;
#27 = DIRECTION ( 'NONE',  ( -0.0000000000000000000, 3.061515884555943146E-16, -1.000000000000000000 ) ) ;
#28 = PERSON_AND_ORGANIZATION_ROLE ( 'classification_officer' ) ;
#29 = DIRECTION ( 'NONE',  ( 0.0000000000000000000, 1.000000000000000000, -1.666462107197164164E-13 ) ) ;
#30 = PERSON_AND_ORGANIZATION_ROLE ( 'design_supplier' ) ;
#31 = CARTESIAN_POINT ( 'NONE',  ( 0.0000000000000000000, 3.006845120984740068E-13, 0.7743012278270523518 ) ) ;
#32 = CARTESIAN_POINT ( 'NONE',  ( 1.555301434917101948E-15, -12.69999999999940066, 0.7743012278291688810 ) ) ;
#33 = DIRECTION ( 'NONE',  ( 0.0000000000000000000, 0.7071067811865504593, -0.7071067811865445751 ) ) ;
#34 = LINE ( 'NONE', #258, #242 ) ;
#35 = APPLICATION_CONTEXT ( 'configuration controlled 3d designs of mechanical parts and assemblies' ) ;
#36 = EDGE_LOOP ( 'NONE', ( #240, #122, #129, #188 ) ) ;
#37 = MECHANICAL_CONTEXT ( 'NONE', #35, 'mechanical' ) ;
#38 = EDGE_CURVE ( 'NONE', #180, #273, #107, .T. ) ;
#39 = PERSON_AND_ORGANIZATION_ROLE ( 'design_owner' ) ;
#40 = AXIS2_PLACEMENT_3D ( 'NONE', #110, #219, #55 ) ;
#41 = APPROVAL_STATUS ( 'not_yet_approved' ) ;
#42 = PERSON_AND_ORGANIZATION ( #248, #237 ) ;
#43 = EDGE_LOOP ( 'NONE', ( #138, #20, #163, #99 ) ) ;
#44 = ORIENTED_EDGE ( 'NONE', *, *, #96, .T. ) ;
#45 = CC_DESIGN_PERSON_AND_ORGANIZATION_ASSIGNMENT ( #15, #39, ( #207 ) ) ;
#46 = CIRCLE ( 'NONE', #215, 12.50000000000000000 ) ;
#47 = DATE_AND_TIME ( #296, #221 ) ;
#48 = AXIS2_PLACEMENT_3D ( 'NONE', #290, #157, #266 ) ;
#49 = DIRECTION ( 'NONE',  ( 8.659560562356410740E-17, -0.7071067811867859376, -0.7071067811863089858 ) ) ;
#50 = EDGE_CURVE ( 'NONE', #247, #273, #263, .T. ) ;
#51 = DIRECTION ( 'NONE',  ( -0.0000000000000000000, -1.666487321856962191E-13, -1.000000000000000000 ) ) ;
#52 = VERTEX_POINT ( 'NONE', #101 ) ;
#53 = DIRECTION ( 'NONE',  ( -0.0000000000000000000, -1.666487321856962191E-13, -1.000000000000000000 ) ) ;
#54 = APPROVAL ( #41, 'UNSPECIFIED' ) ;
#55 = DIRECTION ( 'NONE',  ( 0.0000000000000000000, 1.000000000000000000, -1.666512646385006607E-13 ) ) ;
#56 = CARTESIAN_POINT ( 'NONE',  ( 0.0000000000000000000, 1.715198354439867410E-13, -1401.632000000000289 ) ) ;
#57 = CIRCLE ( 'NONE', #218, 12.69999999999996909 ) ;
#58 = CARTESIAN_POINT ( 'NONE',  ( 1.555301434917134686E-15, -12.69999999999993534, -0.8299999999957671237 ) ) ;
#59 = PRODUCT_DEFINITION ( 'UNKNOWN', '', #297, #275 ) ;
#60 = DIRECTION ( 'NONE',  ( 0.0000000000000000000, 1.000000000000000000, 3.166045774748745548E-16 ) ) ;
#61 = EDGE_CURVE ( 'NONE', #187, #22, #271, .T. ) ;
#62 = EDGE_LOOP ( 'NONE', ( #291, #213, #63, #144 ) ) ;
#63 = ORIENTED_EDGE ( 'NONE', *, *, #161, .T. ) ;
#64 = CC_DESIGN_APPROVAL ( #54, ( #297 ) ) ;
#65 = CIRCLE ( 'NONE', #289, 1402.662000000000262 ) ;
#66 = APPROVAL_ROLE ( '' ) ;
#67 = EDGE_CURVE ( 'NONE', #22, #187, #134, .T. ) ;
#68 = ORIENTED_EDGE ( 'NONE', *, *, #61, .F. ) ;
#69 = DATE_AND_TIME ( #140, #201 ) ;
#70 = CIRCLE ( 'NONE', #91, 12.49999999999966604 ) ;
#71 = APPROVAL_STATUS ( 'not_yet_approved' ) ;
#72 = DIRECTION ( 'NONE',  ( -0.0000000000000000000, -1.666487321856962191E-13, -1.000000000000000000 ) ) ;
#73 = ORIENTED_EDGE ( 'NONE', *, *, #96, .F. ) ;
#74 = APPROVAL ( #90, 'UNSPECIFIED' ) ;
#75 = SECURITY_CLASSIFICATION_LEVEL ( 'unclassified' ) ;
#76 = DIRECTION ( 'NONE',  ( 0.0000000000000000000, 1.666487321856962191E-13, 1.000000000000000000 ) ) ;
#77 = CARTESIAN_POINT ( 'NONE',  ( 0.0000000000000000000, 1.715198354439867410E-13, -1401.632000000000289 ) ) ;
#78 = EDGE_CURVE ( 'NONE', #52, #246, #251, .T. ) ;
#79 = DIRECTION ( 'NONE',  ( 0.0000000000000000000, 1.000000000000000000, 3.166045774748745548E-16 ) ) ;
#80 = DIRECTION ( 'NONE',  ( 0.0000000000000000000, 1.000000000000000000, -1.666462107197164164E-13 ) ) ;
#81 = ORIENTED_EDGE ( 'NONE', *, *, #161, .F. ) ;
#82 =( NAMED_UNIT ( * ) SI_UNIT ( $, .STERADIAN. ) SOLID_ANGLE_UNIT ( ) );
#83 = DIRECTION ( 'NONE',  ( 0.0000000000000000000, 1.000000000000000000, -1.666462107197164164E-13 ) ) ;
#84 = APPROVAL_DATE_TIME ( #250, #74 ) ;
#85 = CC_DESIGN_PERSON_AND_ORGANIZATION_ASSIGNMENT ( #42, #245, ( #297 ) ) ;
#86 = CONICAL_SURFACE ( 'NONE', #88, 12.49999999999966604, 0.7853981633976190313 ) ;
#87 = CARTESIAN_POINT ( 'NONE',  ( 0.0000000000000000000, -1.720190874930328677E-13, 1.030000000000086402 ) ) ;
#88 = AXIS2_PLACEMENT_3D ( 'NONE', #191, #72, #29 ) ;
#89 = CARTESIAN_POINT ( 'NONE',  ( 0.0000000000000000000, 12.70000000000000107, -0.8300000000000000711 ) ) ;
#90 = APPROVAL_STATUS ( 'not_yet_approved' ) ;
#91 = AXIS2_PLACEMENT_3D ( 'NONE', #280, #53, #80 ) ;
#92 = LINE ( 'NONE', #131, #259 ) ;
#93 = FACE_OUTER_BOUND ( 'NONE', #235, .T. ) ;
#94 = PERSON_AND_ORGANIZATION ( #248, #237 ) ;
#95 = FACE_OUTER_BOUND ( 'NONE', #225, .T. ) ;
#96 = EDGE_CURVE ( 'NONE', #273, #180, #70, .T. ) ;
#97 = SECURITY_CLASSIFICATION ( '', '', #75 ) ;
#98 = ADVANCED_FACE ( 'NONE', ( #93 ), #255, .T. ) ;
#99 = ORIENTED_EDGE ( 'NONE', *, *, #114, .F. ) ;
#100 = APPROVAL_ROLE ( '' ) ;
#101 = CARTESIAN_POINT ( 'NONE',  ( 1.543054966925663103E-15, 12.50000000000000000, -1.030000000000007798 ) ) ;
#102 = LINE ( 'NONE', #104, #166 ) ;
#103 = DIRECTION ( 'NONE',  ( 0.0000000000000000000, 1.000000000000000000, 3.073328992872295874E-16 ) ) ;
#104 = CARTESIAN_POINT ( 'NONE',  ( 1.530808498934150501E-15, -12.49999999999933031, 0.9743012278291023343 ) ) ;
#105 = AXIS2_PLACEMENT_3D ( 'NONE', #56, #106, #60 ) ;
#106 = DIRECTION ( 'NONE',  ( 1.000000000000000000, 0.0000000000000000000, -0.0000000000000000000 ) ) ;
#107 = CIRCLE ( 'NONE', #299, 12.49999999999966604 ) ;
#108 = COORDINATED_UNIVERSAL_TIME_OFFSET ( 5, 0, .BEHIND. ) ;
#109 = SPHERICAL_SURFACE ( 'NONE', #105, 1402.662000000000262 ) ;
#110 = CARTESIAN_POINT ( 'NONE',  ( 0.0000000000000000000, 3.332974643749259293E-14, -0.8299999999978836529 ) ) ;
#111 = CARTESIAN_POINT ( 'NONE',  ( 0.0000000000000000000, 3.332974643749259293E-14, -0.8299999999978836529 ) ) ;
#112 = MANIFOLD_SOLID_BREP ( 'TTN099128-1-solid1', #4 ) ;
#113 = DATE_AND_TIME ( #174, #278 ) ;
#114 = EDGE_CURVE ( 'NONE', #198, #130, #267, .T. ) ;
#115 = CYLINDRICAL_SURFACE ( 'NONE', #23, 12.70000000000000107 ) ;
#116 = FACE_OUTER_BOUND ( 'NONE', #279, .T. ) ;
#117 = CALENDAR_DATE ( 2019, 9, 12 ) ;
#118 = ORIENTED_EDGE ( 'NONE', *, *, #61, .T. ) ;
#119 = AXIS2_PLACEMENT_3D ( 'NONE', #11, #76, #171 ) ;
#120 = FACE_OUTER_BOUND ( 'NONE', #36, .T. ) ;
#121 =( GEOMETRIC_REPRESENTATION_CONTEXT ( 3 ) GLOBAL_UNCERTAINTY_ASSIGNED_CONTEXT ( ( #12 ) ) GLOBAL_UNIT_ASSIGNED_CONTEXT ( ( #178, #264, #82 ) ) REPRESENTATION_CONTEXT ( 'NONE', 'WORKASPACE' ) );
#122 = ORIENTED_EDGE ( 'NONE', *, *, #194, .F. ) ;
#123 = DIRECTION ( 'NONE',  ( 8.659560562353341578E-17, 0.7071067811865353603, 0.7071067811865596742 ) ) ;
#124 = ADVANCED_FACE ( 'NONE', ( #148 ), #115, .T. ) ;
#125 = DIRECTION ( 'NONE',  ( -1.000000000000000000, 0.0000000000000000000, 0.0000000000000000000 ) ) ;
#126 = DIRECTION ( 'NONE',  ( -0.0000000000000000000, 3.061515884555943146E-16, -1.000000000000000000 ) ) ;
#127 = DIRECTION ( 'NONE',  ( 0.0000000000000000000, 1.000000000000000000, -1.666462107197164164E-13 ) ) ;
#128 = DIRECTION ( 'NONE',  ( -0.0000000000000000000, -1.666487321856962191E-13, -1.000000000000000000 ) ) ;
#129 = ORIENTED_EDGE ( 'NONE', *, *, #114, .T. ) ;
#130 = VERTEX_POINT ( 'NONE', #58 ) ;
#131 = CARTESIAN_POINT ( 'NONE',  ( 0.0000000000000000000, 12.70000000000000107, -1.029999999999996252 ) ) ;
#132 = CIRCLE ( 'NONE', #40, 12.69999999999996909 ) ;
#133 = DIRECTION ( 'NONE',  ( 0.0000000000000000000, 0.0000000000000000000, 1.000000000000000000 ) ) ;
#134 = CIRCLE ( 'NONE', #1, 12.69999999999970086 ) ;
#135 = DIRECTION ( 'NONE',  ( 1.000000000000000000, 1.224646799147353207E-16, 3.749275628560213616E-32 ) ) ;
#136 = ORIENTED_EDGE ( 'NONE', *, *, #162, .F. ) ;
#137 = CC_DESIGN_PERSON_AND_ORGANIZATION_ASSIGNMENT ( #94, #30, ( #297 ) ) ;
#138 = ORIENTED_EDGE ( 'NONE', *, *, #9, .F. ) ;
#139 = APPLICATION_PROTOCOL_DEFINITION ( 'international standard', 'config_control_design', 1994, #203 ) ;
#140 = CALENDAR_DATE ( 2019, 9, 12 ) ;
#141 = ORIENTED_EDGE ( 'NONE', *, *, #176, .F. ) ;
#142 = CC_DESIGN_APPROVAL ( #74, ( #59 ) ) ;
#143 = EDGE_CURVE ( 'NONE', #22, #130, #34, .T. ) ;
#144 = ORIENTED_EDGE ( 'NONE', *, *, #67, .F. ) ;
#145 = ORIENTED_EDGE ( 'NONE', *, *, #25, .T. ) ;
#146 = LINE ( 'NONE', #239, #274 ) ;
#147 = CALENDAR_DATE ( 2019, 9, 12 ) ;
#148 = FACE_OUTER_BOUND ( 'NONE', #210, .T. ) ;
#149 = CARTESIAN_POINT ( 'NONE',  ( 0.0000000000000000000, -12.69999999999993534, -0.8299999999957671237 ) ) ;
#150 = CARTESIAN_POINT ( 'NONE',  ( 0.0000000000000000000, 3.796279696849369796E-16, -1.030000000000000027 ) ) ;
#151 = EDGE_CURVE ( 'NONE', #187, #246, #92, .T. ) ;
#152 = DIRECTION ( 'NONE',  ( -0.0000000000000000000, 3.061515884555943146E-16, -1.000000000000000000 ) ) ;
#153 = DIRECTION ( 'NONE',  ( 1.000000000000000000, 0.0000000000000000000, -0.0000000000000000000 ) ) ;
#154 = CC_DESIGN_PERSON_AND_ORGANIZATION_ASSIGNMENT ( #177, #28, ( #97 ) ) ;
#155 = CARTESIAN_POINT ( 'NONE',  ( 0.0000000000000000000, 0.0000000000000000000, 0.0000000000000000000 ) ) ;
#156 = APPROVAL_DATE_TIME ( #167, #54 ) ;
#157 = DIRECTION ( 'NONE',  ( -0.0000000000000000000, -1.666487321856962191E-13, -1.000000000000000000 ) ) ;
#158 = ORIENTED_EDGE ( 'NONE', *, *, #151, .T. ) ;
#159 = DIRECTION ( 'NONE',  ( 0.0000000000000000000, 1.666487321856962191E-13, 1.000000000000000000 ) ) ;
#160 = FACE_OUTER_BOUND ( 'NONE', #43, .T. ) ;
#161 = EDGE_CURVE ( 'NONE', #273, #187, #146, .T. ) ;
#162 = EDGE_CURVE ( 'NONE', #130, #246, #132, .T. ) ;
#163 = ORIENTED_EDGE ( 'NONE', *, *, #176, .T. ) ;
#164 = SPHERICAL_SURFACE ( 'NONE', #228, 1402.662000000000262 ) ;
#165 = CC_DESIGN_DATE_AND_TIME_ASSIGNMENT ( #113, #209, ( #97 ) ) ;
#166 = VECTOR ( 'NONE', #49, 1000.000000000000114 ) ;
#167 = DATE_AND_TIME ( #117, #223 ) ;
#168 = ORIENTED_EDGE ( 'NONE', *, *, #67, .T. ) ;
#169 = DIRECTION ( 'NONE',  ( 0.0000000000000000000, -0.7071067811862998820, 0.7071067811867952635 ) ) ;
#170 = DIRECTION ( 'NONE',  ( 0.0000000000000000000, 0.0000000000000000000, 1.000000000000000000 ) ) ;
#171 = DIRECTION ( 'NONE',  ( 0.0000000000000000000, -1.000000000000000000, 1.666512646385006607E-13 ) ) ;
#172 = CC_DESIGN_PERSON_AND_ORGANIZATION_ASSIGNMENT ( #260, #270, ( #59 ) ) ;
#173 = CARTESIAN_POINT ( 'NONE',  ( 0.0000000000000000000, 3.464970479358291331E-25, -1.029999999997924798 ) ) ;
#174 = CALENDAR_DATE ( 2019, 9, 12 ) ;
#175 = CARTESIAN_POINT ( 'NONE',  ( 0.0000000000000000000, 3.340142585356077122E-13, 0.9743012278270193338 ) ) ;
#176 = EDGE_CURVE ( 'NONE', #246, #130, #57, .T. ) ;
#177 = PERSON_AND_ORGANIZATION ( #248, #237 ) ;
#178 =( LENGTH_UNIT ( ) NAMED_UNIT ( * ) SI_UNIT ( .MILLI., .METRE. ) );
#179 = CC_DESIGN_APPROVAL ( #199, ( #97 ) ) ;
#180 = VERTEX_POINT ( 'NONE', #18 ) ;
#181 = CARTESIAN_POINT ( 'NONE',  ( 0.0000000000000000000, 3.332974643749259293E-14, -0.8299999999978836529 ) ) ;
#182 = APPLICATION_PROTOCOL_DEFINITION ( 'international standard', 'config_control_design', 1994, #35 ) ;
#183 = AXIS2_PLACEMENT_3D ( 'NONE', #155, #133, #292 ) ;
#184 = ORIENTED_EDGE ( 'NONE', *, *, #143, .T. ) ;
#185 = FACE_OUTER_BOUND ( 'NONE', #62, .T. ) ;
#186 = ADVANCED_FACE ( 'NONE', ( #185 ), #277, .T. ) ;
#187 = VERTEX_POINT ( 'NONE', #220 ) ;
#188 = ORIENTED_EDGE ( 'NONE', *, *, #162, .T. ) ;
#189 = EDGE_CURVE ( 'NONE', #247, #180, #65, .T. ) ;
#190 = AXIS2_PLACEMENT_3D ( 'NONE', #150, #152, #230 ) ;
#191 = CARTESIAN_POINT ( 'NONE',  ( 0.0000000000000000000, 3.340142585356077122E-13, 0.9743012278270193338 ) ) ;
#192 = CARTESIAN_POINT ( 'NONE',  ( 0.0000000000000000000, 3.796279696849369796E-16, -1.030000000000000027 ) ) ;
#193 = ORIENTED_EDGE ( 'NONE', *, *, #50, .F. ) ;
#194 = EDGE_CURVE ( 'NONE', #198, #52, #6, .T. ) ;
#195 = DIRECTION ( 'NONE',  ( 0.0000000000000000000, 1.000000000000000000, -1.666512646385041695E-13 ) ) ;
#196 = ORIENTED_EDGE ( 'NONE', *, *, #151, .F. ) ;
#197 = DIRECTION ( 'NONE',  ( 0.0000000000000000000, 1.000000000000000000, -1.666512646385006607E-13 ) ) ;
#198 = VERTEX_POINT ( 'NONE', #293 ) ;
#199 = APPROVAL ( #71, 'UNSPECIFIED' ) ;
#200 = DIRECTION ( 'NONE',  ( -0.0000000000000000000, -1.666487321856962191E-13, -1.000000000000000000 ) ) ;
#201 = LOCAL_TIME ( 15, 54, 59.00000000000000000, #19 ) ;
#202 = VECTOR ( 'NONE', #123, 1000.000000000000000 ) ;
#203 = APPLICATION_CONTEXT ( 'configuration controlled 3d designs of mechanical parts and assemblies' ) ;
#204 = COORDINATED_UNIVERSAL_TIME_OFFSET ( 5, 0, .BEHIND. ) ;
#205 = AXIS2_PLACEMENT_3D ( 'NONE', #13, #212, #254 ) ;
#206 = COORDINATED_UNIVERSAL_TIME_OFFSET ( 5, 0, .BEHIND. ) ;
#207 = PRODUCT ( 'TTN099126-E0W', 'TTN099126-E0W', '', ( #37 ) ) ;
#208 = APPROVAL_PERSON_ORGANIZATION ( #216, #54, #66 ) ;
#209 = DATE_TIME_ROLE ( 'classification_date' ) ;
#210 = EDGE_LOOP ( 'NONE', ( #118, #184, #141, #196 ) ) ;
#211 = ADVANCED_FACE ( 'NONE', ( #301 ), #109, .T. ) ;
#212 = DIRECTION ( 'NONE',  ( -0.0000000000000000000, -1.666487321856962191E-13, -1.000000000000000000 ) ) ;
#213 = ORIENTED_EDGE ( 'NONE', *, *, #38, .T. ) ;
#214 = AXIS2_PLACEMENT_3D ( 'NONE', #234, #200, #83 ) ;
#215 = AXIS2_PLACEMENT_3D ( 'NONE', #173, #231, #283 ) ;
#216 = PERSON_AND_ORGANIZATION ( #248, #237 ) ;
#217 = DIRECTION ( 'NONE',  ( -0.0000000000000000000, 3.061515884555943146E-16, -1.000000000000000000 ) ) ;
#218 = AXIS2_PLACEMENT_3D ( 'NONE', #111, #128, #197 ) ;
#219 = DIRECTION ( 'NONE',  ( -0.0000000000000000000, -1.666487321856962191E-13, -1.000000000000000000 ) ) ;
#220 = CARTESIAN_POINT ( 'NONE',  ( 0.0000000000000000000, 12.70000000000000107, 0.7743012278249359337 ) ) ;
#221 = LOCAL_TIME ( 15, 54, 59.00000000000000000, #206 ) ;
#222 = CYLINDRICAL_SURFACE ( 'NONE', #190, 12.70000000000000107 ) ;
#223 = LOCAL_TIME ( 15, 54, 59.00000000000000000, #108 ) ;
#224 = CONICAL_SURFACE ( 'NONE', #17, 12.69999999999996909, 0.7853981633972645371 ) ;
#225 = EDGE_LOOP ( 'NONE', ( #272, #168, #158, #136 ) ) ;
#226 = APPROVAL_DATE_TIME ( #47, #199 ) ;
#227 = PRODUCT_DEFINITION_SHAPE ( 'NONE', 'NONE',  #59 ) ;
#228 = AXIS2_PLACEMENT_3D ( 'NONE', #256, #153, #79 ) ;
#229 = AXIS2_PLACEMENT_3D ( 'NONE', #232, #126, #257 ) ;
#230 = DIRECTION ( 'NONE',  ( 0.0000000000000000000, 1.000000000000000000, 3.073328992872295874E-16 ) ) ;
#231 = DIRECTION ( 'NONE',  ( -0.0000000000000000000, -1.666487321856962191E-13, -1.000000000000000000 ) ) ;
#232 = CARTESIAN_POINT ( 'NONE',  ( 0.0000000000000000000, 3.796279696849375220E-16, -1.030000000000002025 ) ) ;
#233 = FACE_OUTER_BOUND ( 'NONE', #241, .T. ) ;
#234 = CARTESIAN_POINT ( 'NONE',  ( 0.0000000000000000000, 3.340142585356077122E-13, 0.9743012278270193338 ) ) ;
#235 = EDGE_LOOP ( 'NONE', ( #265, #295 ) ) ;
#236 = DIRECTION ( 'NONE',  ( 0.0000000000000000000, -1.000000000000000000, 1.666512646385006607E-13 ) ) ;
#237 = ORGANIZATION ( 'UNSPECIFIED', 'UNSPECIFIED', '' ) ;
#238 = SHAPE_DEFINITION_REPRESENTATION ( #227, #3 ) ;
#239 = CARTESIAN_POINT ( 'NONE',  ( 0.0000000000000000000, 12.50000000000000000, 0.9743012278249362224 ) ) ;
#240 = ORIENTED_EDGE ( 'NONE', *, *, #78, .F. ) ;
#241 = EDGE_LOOP ( 'NONE', ( #44, #145, #68, #81 ) ) ;
#242 = VECTOR ( 'NONE', #217, 1000.000000000000000 ) ;
#243 = PERSON_AND_ORGANIZATION ( #248, #237 ) ;
#244 = ORIENTED_EDGE ( 'NONE', *, *, #189, .F. ) ;
#245 = PERSON_AND_ORGANIZATION_ROLE ( 'creator' ) ;
#246 = VERTEX_POINT ( 'NONE', #89 ) ;
#247 = VERTEX_POINT ( 'NONE', #87 ) ;
#248 = PERSON ( 'UNSPECIFIED', 'UNSPECIFIED', 'UNSPECIFIED', ('UNSPECIFIED'), ('UNSPECIFIED'), ('UNSPECIFIED') ) ;
#249 = AXIS2_PLACEMENT_3D ( 'NONE', #77, #125, #170 ) ;
#250 = DATE_AND_TIME ( #147, #24 ) ;
#251 = LINE ( 'NONE', #285, #202 ) ;
#252 = DIRECTION ( 'NONE',  ( -0.0000000000000000000, -1.666487321856962191E-13, -1.000000000000000000 ) ) ;
#253 = ORIENTED_EDGE ( 'NONE', *, *, #50, .T. ) ;
#254 = DIRECTION ( 'NONE',  ( 0.0000000000000000000, 1.000000000000000000, -1.666512646385041695E-13 ) ) ;
#255 = PLANE ( 'NONE',  #229 ) ;
#256 = CARTESIAN_POINT ( 'NONE',  ( 0.0000000000000000000, 1.715198354439867410E-13, -1401.632000000000289 ) ) ;
#257 = DIRECTION ( 'NONE',  ( 0.0000000000000000000, 1.000000000000000000, 3.061515884555943146E-16 ) ) ;
#258 = CARTESIAN_POINT ( 'NONE',  ( 1.555301434917138630E-15, -12.70000000000000107, -1.030000000000004023 ) ) ;
#259 = VECTOR ( 'NONE', #287, 1000.000000000000000 ) ;
#260 = PERSON_AND_ORGANIZATION ( #248, #237 ) ;
#261 = DIRECTION ( 'NONE',  ( -1.224646799147353207E-16, 1.000000000000000000, 0.0000000000000000000 ) ) ;
#262 = PRODUCT_RELATED_PRODUCT_CATEGORY ( 'detail', '', ( #207 ) ) ;
#263 = CIRCLE ( 'NONE', #249, 1402.662000000000262 ) ;
#264 =( NAMED_UNIT ( * ) PLANE_ANGLE_UNIT ( ) SI_UNIT ( $, .RADIAN. ) );
#265 = ORIENTED_EDGE ( 'NONE', *, *, #194, .T. ) ;
#266 = DIRECTION ( 'NONE',  ( 0.0000000000000000000, 1.000000000000000000, -1.666548843370918576E-13 ) ) ;
#267 = LINE ( 'NONE', #149, #21 ) ;
#268 = APPROVAL_ROLE ( '' ) ;
#269 = PERSON_AND_ORGANIZATION ( #248, #237 ) ;
#270 = PERSON_AND_ORGANIZATION_ROLE ( 'creator' ) ;
#271 = CIRCLE ( 'NONE', #205, 12.69999999999970086 ) ;
#272 = ORIENTED_EDGE ( 'NONE', *, *, #143, .F. ) ;
#273 = VERTEX_POINT ( 'NONE', #14 ) ;
#274 = VECTOR ( 'NONE', #33, 1000.000000000000000 ) ;
#275 = DESIGN_CONTEXT ( 'detailed design', #203, 'design' ) ;
#276 = CC_DESIGN_DATE_AND_TIME_ASSIGNMENT ( #69, #298, ( #59 ) ) ;
#277 = CONICAL_SURFACE ( 'NONE', #214, 12.49999999999966604, 0.7853981633976190313 ) ;
#278 = LOCAL_TIME ( 15, 54, 59.00000000000000000, #288 ) ;
#279 = EDGE_LOOP ( 'NONE', ( #193, #282, #73 ) ) ;
#280 = CARTESIAN_POINT ( 'NONE',  ( 0.0000000000000000000, 3.340142585356077122E-13, 0.9743012278270193338 ) ) ;
#281 = ADVANCED_FACE ( 'NONE', ( #120 ), #224, .T. ) ;
#282 = ORIENTED_EDGE ( 'NONE', *, *, #189, .T. ) ;
#283 = DIRECTION ( 'NONE',  ( 0.0000000000000000000, 1.000000000000000000, -1.666548843370918576E-13 ) ) ;
#284 = CONICAL_SURFACE ( 'NONE', #119, 12.69999999999996909, 0.7853981633972645371 ) ;
#285 = CARTESIAN_POINT ( 'NONE',  ( 1.555301434917134686E-15, 12.70000000000000107, -0.8300000000000000711 ) ) ;
#286 = APPROVAL_PERSON_ORGANIZATION ( #269, #199, #100 ) ;
#287 = DIRECTION ( 'NONE',  ( -0.0000000000000000000, 3.061515884555943146E-16, -1.000000000000000000 ) ) ;
#288 = COORDINATED_UNIVERSAL_TIME_OFFSET ( 5, 0, .BEHIND. ) ;
#289 = AXIS2_PLACEMENT_3D ( 'NONE', #16, #135, #261 ) ;
#290 = CARTESIAN_POINT ( 'NONE',  ( 0.0000000000000000000, 3.464970479358291331E-25, -1.029999999997924798 ) ) ;
#291 = ORIENTED_EDGE ( 'NONE', *, *, #25, .F. ) ;
#292 = DIRECTION ( 'NONE',  ( 1.000000000000000000, 0.0000000000000000000, 0.0000000000000000000 ) ) ;
#293 = CARTESIAN_POINT ( 'NONE',  ( 0.0000000000000000000, -12.50000000000000000, -1.029999999995841575 ) ) ;
#294 = CC_DESIGN_SECURITY_CLASSIFICATION ( #97, ( #297 ) ) ;
#295 = ORIENTED_EDGE ( 'NONE', *, *, #9, .T. ) ;
#296 = CALENDAR_DATE ( 2019, 9, 12 ) ;
#297 = PRODUCT_DEFINITION_FORMATION_WITH_SPECIFIED_SOURCE ( 'ANY', '', #207, .NOT_KNOWN. ) ;
#298 = DATE_TIME_ROLE ( 'creation_date' ) ;
#299 = AXIS2_PLACEMENT_3D ( 'NONE', #175, #51, #127 ) ;
#300 = EDGE_LOOP ( 'NONE', ( #244, #253, #5 ) ) ;
#301 = FACE_OUTER_BOUND ( 'NONE', #300, .T. ) ;
ENDSEC;
END-ISO-10303-21;
