ISO-10303-21;
HEADER;
FILE_DESCRIPTION (( 'STEP AP203' ),
    '1' );
FILE_NAME ('Web Model 68405.STEP',
    '2017-01-31T19:57:48',
    ( '' ),
    ( '' ),
    'SwSTEP 2.0',
    'SolidWorks 2016',
    '' );
FILE_SCHEMA (( 'CONFIG_CONTROL_DESIGN' ));
ENDSEC;

DATA;
#1 = APPROVAL_PERSON_ORGANIZATION ( #53, #168, #227 ) ;
#2 = ORIENTED_EDGE ( 'NONE', *, *, #230, .T. ) ;
#3 = EDGE_CURVE ( 'NONE', #92, #133, #128, .T. ) ;
#4 = ORIENTED_EDGE ( 'NONE', *, *, #98, .T. ) ;
#5 = CC_DESIGN_PERSON_AND_ORGANIZATION_ASSIGNMENT ( #81, #97, ( #121 ) ) ;
#6 = DIRECTION ( 'NONE',  ( -1.000000000000000000, -1.387778780781445900E-016, 0.0000000000000000000 ) ) ;
#7 = CALENDAR_DATE ( 2017, 31, 1 ) ;
#8 = VERTEX_POINT ( 'NONE', #191 ) ;
#9 = EDGE_CURVE ( 'NONE', #149, #92, #56, .T. ) ;
#10 = APPLICATION_PROTOCOL_DEFINITION ( 'international standard', 'config_control_design', 1994, #225 ) ;
#11 = PERSON_AND_ORGANIZATION_ROLE ( 'creator' ) ;
#12 = LINE ( 'NONE', #67, #176 ) ;
#13 = EDGE_LOOP ( 'NONE', ( #59, #25, #202, #129 ) ) ;
#14 = COORDINATED_UNIVERSAL_TIME_OFFSET ( 5, 0, .BEHIND. ) ;
#15 = FACE_OUTER_BOUND ( 'NONE', #22, .T. ) ;
#16 = CC_DESIGN_APPROVAL ( #168, ( #134 ) ) ;
#17 = APPROVAL_STATUS ( 'not_yet_approved' ) ;
#18 = AXIS2_PLACEMENT_3D ( 'NONE', #76, #131, #186 ) ;
#19 = DIRECTION ( 'NONE',  ( 1.387778780781445900E-016, -1.000000000000000000, 0.0000000000000000000 ) ) ;
#20 = DESIGN_CONTEXT ( 'detailed design', #225, 'design' ) ;
#21 = DIRECTION ( 'NONE',  ( -0.0000000000000000000, -0.0000000000000000000, -1.000000000000000000 ) ) ;
#22 = EDGE_LOOP ( 'NONE', ( #4, #61, #83, #32 ) ) ;
#23 = ADVANCED_FACE ( 'NONE', ( #197 ), #36, .F. ) ;
#24 = CARTESIAN_POINT ( 'NONE',  ( 12.49999999999999500, 12.50000000000000000, 3.000000000000000000 ) ) ;
#25 = ORIENTED_EDGE ( 'NONE', *, *, #51, .F. ) ;
#26 = PERSON_AND_ORGANIZATION ( #231, #196 ) ;
#27 = FACE_OUTER_BOUND ( 'NONE', #13, .T. ) ;
#28 = APPLICATION_CONTEXT ( 'configuration controlled 3d designs of mechanical parts and assemblies' ) ;
#29 = CARTESIAN_POINT ( 'NONE',  ( -12.49999999999999500, -12.50000000000000400, 0.0000000000000000000 ) ) ;
#30 =( GEOMETRIC_REPRESENTATION_CONTEXT ( 3 ) GLOBAL_UNCERTAINTY_ASSIGNED_CONTEXT ( ( #139 ) ) GLOBAL_UNIT_ASSIGNED_CONTEXT ( ( #119, #77, #75 ) ) REPRESENTATION_CONTEXT ( 'NONE', 'WORKASPACE' ) );
#31 = APPROVAL_STATUS ( 'not_yet_approved' ) ;
#32 = ORIENTED_EDGE ( 'NONE', *, *, #167, .T. ) ;
#33 = CARTESIAN_POINT ( 'NONE',  ( -12.49999999999999800, 12.49999999999999600, 3.000000000000000000 ) ) ;
#34 = PRODUCT_RELATED_PRODUCT_CATEGORY ( 'detail', '', ( #187 ) ) ;
#35 = EDGE_CURVE ( 'NONE', #170, #133, #132, .T. ) ;
#36 = PLANE ( 'NONE',  #158 ) ;
#37 = LOCAL_TIME ( 14, 57, 48.00000000000000000, #144 ) ;
#38 = DIRECTION ( 'NONE',  ( -4.163336342344337000E-016, 1.000000000000000000, -0.0000000000000000000 ) ) ;
#39 = CARTESIAN_POINT ( 'NONE',  ( -12.49999999999999800, 12.49999999999999600, 3.000000000000000000 ) ) ;
#40 = CC_DESIGN_SECURITY_CLASSIFICATION ( #121, ( #64 ) ) ;
#41 = CARTESIAN_POINT ( 'NONE',  ( 12.50000000000000500, -12.50000000000000000, 3.000000000000000000 ) ) ;
#42 = ADVANCED_FACE ( 'NONE', ( #27 ), #122, .F. ) ;
#43 = CC_DESIGN_DATE_AND_TIME_ASSIGNMENT ( #126, #145, ( #134 ) ) ;
#44 = LOCAL_TIME ( 14, 57, 48.00000000000000000, #175 ) ;
#45 = CALENDAR_DATE ( 2017, 31, 1 ) ;
#46 = EDGE_LOOP ( 'NONE', ( #177, #152, #89, #95 ) ) ;
#47 = EDGE_CURVE ( 'NONE', #160, #149, #165, .T. ) ;
#48 = LOCAL_TIME ( 14, 57, 48.00000000000000000, #200 ) ;
#49 = DIRECTION ( 'NONE',  ( -1.387778780781445400E-016, 1.000000000000000000, 0.0000000000000000000 ) ) ;
#50 = LINE ( 'NONE', #174, #118 ) ;
#51 = EDGE_CURVE ( 'NONE', #233, #192, #209, .T. ) ;
#52 = DIRECTION ( 'NONE',  ( 1.000000000000000000, 0.0000000000000000000, 0.0000000000000000000 ) ) ;
#53 = PERSON_AND_ORGANIZATION ( #231, #196 ) ;
#54 = EDGE_LOOP ( 'NONE', ( #180, #107, #226, #136 ) ) ;
#55 = PLANE ( 'NONE',  #219 ) ;
#56 = LINE ( 'NONE', #84, #188 ) ;
#57 = PLANE ( 'NONE',  #65 ) ;
#58 = VECTOR ( 'NONE', #198, 1000.000000000000000 ) ;
#59 = ORIENTED_EDGE ( 'NONE', *, *, #208, .T. ) ;
#60 = VECTOR ( 'NONE', #206, 1000.000000000000000 ) ;
#61 = ORIENTED_EDGE ( 'NONE', *, *, #111, .T. ) ;
#62 = APPROVAL_ROLE ( '' ) ;
#63 = PERSON_AND_ORGANIZATION_ROLE ( 'design_supplier' ) ;
#64 = PRODUCT_DEFINITION_FORMATION_WITH_SPECIFIED_SOURCE ( 'ANY', '', #187, .NOT_KNOWN. ) ;
#65 = AXIS2_PLACEMENT_3D ( 'NONE', #90, #110, #236 ) ;
#66 = VECTOR ( 'NONE', #6, 1000.000000000000000 ) ;
#67 = CARTESIAN_POINT ( 'NONE',  ( -12.49999999999999800, 12.49999999999999600, 3.000000000000000000 ) ) ;
#68 = LINE ( 'NONE', #125, #232 ) ;
#69 = CLOSED_SHELL ( 'NONE', ( #42, #173, #109, #23, #215, #159 ) ) ;
#70 = DIRECTION ( 'NONE',  ( 1.000000000000000000, 1.387778780781445900E-016, 0.0000000000000000000 ) ) ;
#71 = APPROVAL ( #135, 'UNSPECIFIED' ) ;
#72 = DIRECTION ( 'NONE',  ( -0.0000000000000000000, -0.0000000000000000000, -1.000000000000000000 ) ) ;
#73 = LINE ( 'NONE', #216, #85 ) ;
#74 = PERSON_AND_ORGANIZATION ( #231, #196 ) ;
#75 =( NAMED_UNIT ( * ) SI_UNIT ( $, .STERADIAN. ) SOLID_ANGLE_UNIT ( ) );
#76 = CARTESIAN_POINT ( 'NONE',  ( -12.49999999999999500, -12.50000000000000400, 3.000000000000000000 ) ) ;
#77 =( NAMED_UNIT ( * ) PLANE_ANGLE_UNIT ( ) SI_UNIT ( $, .RADIAN. ) );
#78 = PERSON_AND_ORGANIZATION ( #231, #196 ) ;
#79 = EDGE_LOOP ( 'NONE', ( #143, #212, #218, #229 ) ) ;
#80 = PERSON_AND_ORGANIZATION_ROLE ( 'design_owner' ) ;
#81 = PERSON_AND_ORGANIZATION ( #231, #196 ) ;
#82 = APPROVAL_ROLE ( '' ) ;
#83 = ORIENTED_EDGE ( 'NONE', *, *, #47, .T. ) ;
#84 = CARTESIAN_POINT ( 'NONE',  ( 12.49999999999999500, 12.50000000000000000, 3.000000000000000000 ) ) ;
#85 = VECTOR ( 'NONE', #72, 1000.000000000000000 ) ;
#86 = CARTESIAN_POINT ( 'NONE',  ( 12.49999999999999500, 12.50000000000000000, 3.000000000000000000 ) ) ;
#87 = DIRECTION ( 'NONE',  ( -1.000000000000000000, -1.387778780781445900E-016, 0.0000000000000000000 ) ) ;
#88 = CARTESIAN_POINT ( 'NONE',  ( -12.49999999999999800, 12.49999999999999600, 3.000000000000000000 ) ) ;
#89 = ORIENTED_EDGE ( 'NONE', *, *, #167, .F. ) ;
#90 = CARTESIAN_POINT ( 'NONE',  ( -12.49999999999999500, -12.50000000000000400, 0.0000000000000000000 ) ) ;
#91 = VECTOR ( 'NONE', #38, 1000.000000000000000 ) ;
#92 = VERTEX_POINT ( 'NONE', #214 ) ;
#93 = CC_DESIGN_PERSON_AND_ORGANIZATION_ASSIGNMENT ( #26, #63, ( #64 ) ) ;
#94 = DATE_AND_TIME ( #7, #44 ) ;
#95 = ORIENTED_EDGE ( 'NONE', *, *, #9, .T. ) ;
#96 = PERSON_AND_ORGANIZATION_ROLE ( 'creator' ) ;
#97 = PERSON_AND_ORGANIZATION_ROLE ( 'classification_officer' ) ;
#98 = EDGE_CURVE ( 'NONE', #170, #233, #12, .T. ) ;
#99 = SHAPE_DEFINITION_REPRESENTATION ( #222, #102 ) ;
#100 = CARTESIAN_POINT ( 'NONE',  ( -12.49999999999999500, -12.50000000000000400, 3.000000000000000000 ) ) ;
#101 = APPLICATION_PROTOCOL_DEFINITION ( 'international standard', 'config_control_design', 1994, #28 ) ;
#102 = ADVANCED_BREP_SHAPE_REPRESENTATION ( 'Web Model 68405', ( #130, #172 ), #30 ) ;
#103 = VECTOR ( 'NONE', #87, 1000.000000000000000 ) ;
#104 = ORIENTED_EDGE ( 'NONE', *, *, #111, .F. ) ;
#105 = CARTESIAN_POINT ( 'NONE',  ( 12.49999999999999500, 12.50000000000000000, 0.0000000000000000000 ) ) ;
#106 = LINE ( 'NONE', #162, #60 ) ;
#107 = ORIENTED_EDGE ( 'NONE', *, *, #9, .F. ) ;
#108 = CC_DESIGN_APPROVAL ( #189, ( #121 ) ) ;
#109 = ADVANCED_FACE ( 'NONE', ( #211 ), #55, .F. ) ;
#110 = DIRECTION ( 'NONE',  ( 0.0000000000000000000, 0.0000000000000000000, -1.000000000000000000 ) ) ;
#111 = EDGE_CURVE ( 'NONE', #233, #160, #50, .T. ) ;
#112 = LOCAL_TIME ( 14, 57, 48.00000000000000000, #14 ) ;
#113 = ORIENTED_EDGE ( 'NONE', *, *, #137, .F. ) ;
#114 = PLANE ( 'NONE',  #18 ) ;
#115 = LINE ( 'NONE', #199, #66 ) ;
#116 = DATE_TIME_ROLE ( 'classification_date' ) ;
#117 = PLANE ( 'NONE',  #223 ) ;
#118 = VECTOR ( 'NONE', #142, 1000.000000000000000 ) ;
#119 =( LENGTH_UNIT ( ) NAMED_UNIT ( * ) SI_UNIT ( .MILLI., .METRE. ) );
#120 = LINE ( 'NONE', #205, #157 ) ;
#121 = SECURITY_CLASSIFICATION ( '', '', #204 ) ;
#122 = PLANE ( 'NONE',  #184 ) ;
#123 = CARTESIAN_POINT ( 'NONE',  ( 12.49999999999999500, 12.50000000000000000, 3.000000000000000000 ) ) ;
#124 = DATE_AND_TIME ( #45, #147 ) ;
#125 = CARTESIAN_POINT ( 'NONE',  ( 12.49999999999999500, 12.50000000000000000, 0.0000000000000000000 ) ) ;
#126 = DATE_AND_TIME ( #183, #37 ) ;
#127 = PERSON_AND_ORGANIZATION ( #231, #196 ) ;
#128 = LINE ( 'NONE', #105, #103 ) ;
#129 = ORIENTED_EDGE ( 'NONE', *, *, #35, .T. ) ;
#130 = MANIFOLD_SOLID_BREP ( 'Extrude1', #69 ) ;
#131 = DIRECTION ( 'NONE',  ( 0.0000000000000000000, 0.0000000000000000000, -1.000000000000000000 ) ) ;
#132 = LINE ( 'NONE', #39, #58 ) ;
#133 = VERTEX_POINT ( 'NONE', #141 ) ;
#134 = PRODUCT_DEFINITION ( 'UNKNOWN', '', #64, #20 ) ;
#135 = APPROVAL_STATUS ( 'not_yet_approved' ) ;
#136 = ORIENTED_EDGE ( 'NONE', *, *, #137, .T. ) ;
#137 = EDGE_CURVE ( 'NONE', #160, #8, #73, .T. ) ;
#138 = DIRECTION ( 'NONE',  ( -0.0000000000000000000, -0.0000000000000000000, -1.000000000000000000 ) ) ;
#139 = UNCERTAINTY_MEASURE_WITH_UNIT (LENGTH_MEASURE( 1.000000000000000100E-005 ), #119, 'distance_accuracy_value', 'NONE');
#140 = CALENDAR_DATE ( 2017, 31, 1 ) ;
#141 = CARTESIAN_POINT ( 'NONE',  ( -12.49999999999999800, 12.49999999999999600, 0.0000000000000000000 ) ) ;
#142 = DIRECTION ( 'NONE',  ( 1.000000000000000000, 1.387778780781445700E-016, -0.0000000000000000000 ) ) ;
#143 = ORIENTED_EDGE ( 'NONE', *, *, #208, .F. ) ;
#144 = COORDINATED_UNIVERSAL_TIME_OFFSET ( 5, 0, .BEHIND. ) ;
#145 = DATE_TIME_ROLE ( 'creation_date' ) ;
#146 = APPROVAL_DATE_TIME ( #221, #71 ) ;
#147 = LOCAL_TIME ( 14, 57, 48.00000000000000000, #161 ) ;
#148 = DIRECTION ( 'NONE',  ( -4.163336342344337000E-016, 1.000000000000000000, -0.0000000000000000000 ) ) ;
#149 = VERTEX_POINT ( 'NONE', #24 ) ;
#150 = DIRECTION ( 'NONE',  ( 1.000000000000000000, 1.387778780781445700E-016, -0.0000000000000000000 ) ) ;
#151 = FACE_OUTER_BOUND ( 'NONE', #155, .T. ) ;
#152 = ORIENTED_EDGE ( 'NONE', *, *, #35, .F. ) ;
#153 = APPROVAL_PERSON_ORGANIZATION ( #179, #189, #82 ) ;
#154 = VECTOR ( 'NONE', #138, 1000.000000000000000 ) ;
#155 = EDGE_LOOP ( 'NONE', ( #2, #113, #104, #185 ) ) ;
#156 = CARTESIAN_POINT ( 'NONE',  ( 12.49999999999999500, 12.50000000000000000, 3.000000000000000000 ) ) ;
#157 = VECTOR ( 'NONE', #150, 1000.000000000000000 ) ;
#158 = AXIS2_PLACEMENT_3D ( 'NONE', #123, #19, #70 ) ;
#159 = ADVANCED_FACE ( 'NONE', ( #201 ), #57, .T. ) ;
#160 = VERTEX_POINT ( 'NONE', #41 ) ;
#161 = COORDINATED_UNIVERSAL_TIME_OFFSET ( 5, 0, .BEHIND. ) ;
#162 = CARTESIAN_POINT ( 'NONE',  ( -12.49999999999999800, 12.49999999999999600, 0.0000000000000000000 ) ) ;
#163 = CARTESIAN_POINT ( 'NONE',  ( 12.50000000000000500, -12.50000000000000000, 3.000000000000000000 ) ) ;
#164 = DIRECTION ( 'NONE',  ( 0.0000000000000000000, 0.0000000000000000000, 1.000000000000000000 ) ) ;
#165 = LINE ( 'NONE', #156, #91 ) ;
#166 = MECHANICAL_CONTEXT ( 'NONE', #28, 'mechanical' ) ;
#167 = EDGE_CURVE ( 'NONE', #149, #170, #115, .T. ) ;
#168 = APPROVAL ( #31, 'UNSPECIFIED' ) ;
#169 = DIRECTION ( 'NONE',  ( -1.000000000000000000, -4.163336342344336500E-016, 0.0000000000000000000 ) ) ;
#170 = VERTEX_POINT ( 'NONE', #33 ) ;
#171 = DIRECTION ( 'NONE',  ( -1.387778780781445400E-016, 1.000000000000000000, 0.0000000000000000000 ) ) ;
#172 = AXIS2_PLACEMENT_3D ( 'NONE', #203, #164, #52 ) ;
#173 = ADVANCED_FACE ( 'NONE', ( #151 ), #117, .F. ) ;
#174 = CARTESIAN_POINT ( 'NONE',  ( 12.50000000000000500, -12.50000000000000000, 3.000000000000000000 ) ) ;
#175 = COORDINATED_UNIVERSAL_TIME_OFFSET ( 5, 0, .BEHIND. ) ;
#176 = VECTOR ( 'NONE', #234, 1000.000000000000000 ) ;
#177 = ORIENTED_EDGE ( 'NONE', *, *, #3, .T. ) ;
#178 = CC_DESIGN_PERSON_AND_ORGANIZATION_ASSIGNMENT ( #78, #11, ( #134 ) ) ;
#179 = PERSON_AND_ORGANIZATION ( #231, #196 ) ;
#180 = ORIENTED_EDGE ( 'NONE', *, *, #193, .T. ) ;
#181 = DATE_AND_TIME ( #228, #112 ) ;
#182 = DIRECTION ( 'NONE',  ( -1.000000000000000000, -1.387778780781445400E-016, 0.0000000000000000000 ) ) ;
#183 = CALENDAR_DATE ( 2017, 31, 1 ) ;
#184 = AXIS2_PLACEMENT_3D ( 'NONE', #88, #195, #171 ) ;
#185 = ORIENTED_EDGE ( 'NONE', *, *, #51, .T. ) ;
#186 = DIRECTION ( 'NONE',  ( -1.000000000000000000, 0.0000000000000000000, -0.0000000000000000000 ) ) ;
#187 = PRODUCT ( 'Web Model 68405', 'Web Model 68405', '', ( #166 ) ) ;
#188 = VECTOR ( 'NONE', #21, 1000.000000000000000 ) ;
#189 = APPROVAL ( #17, 'UNSPECIFIED' ) ;
#190 = PERSON_AND_ORGANIZATION ( #231, #196 ) ;
#191 = CARTESIAN_POINT ( 'NONE',  ( 12.50000000000000500, -12.50000000000000000, 0.0000000000000000000 ) ) ;
#192 = VERTEX_POINT ( 'NONE', #29 ) ;
#193 = EDGE_CURVE ( 'NONE', #8, #92, #68, .T. ) ;
#194 = CC_DESIGN_APPROVAL ( #71, ( #64 ) ) ;
#195 = DIRECTION ( 'NONE',  ( 1.000000000000000000, 1.387778780781445400E-016, -0.0000000000000000000 ) ) ;
#196 = ORGANIZATION ( 'UNSPECIFIED', 'UNSPECIFIED', '' ) ;
#197 = FACE_OUTER_BOUND ( 'NONE', #46, .T. ) ;
#198 = DIRECTION ( 'NONE',  ( -0.0000000000000000000, -0.0000000000000000000, -1.000000000000000000 ) ) ;
#199 = CARTESIAN_POINT ( 'NONE',  ( 12.49999999999999500, 12.50000000000000000, 3.000000000000000000 ) ) ;
#200 = COORDINATED_UNIVERSAL_TIME_OFFSET ( 5, 0, .BEHIND. ) ;
#201 = FACE_OUTER_BOUND ( 'NONE', #79, .T. ) ;
#202 = ORIENTED_EDGE ( 'NONE', *, *, #98, .F. ) ;
#203 = CARTESIAN_POINT ( 'NONE',  ( 0.0000000000000000000, 0.0000000000000000000, 0.0000000000000000000 ) ) ;
#204 = SECURITY_CLASSIFICATION_LEVEL ( 'unclassified' ) ;
#205 = CARTESIAN_POINT ( 'NONE',  ( 12.50000000000000500, -12.50000000000000000, 0.0000000000000000000 ) ) ;
#206 = DIRECTION ( 'NONE',  ( 1.387778780781445700E-016, -1.000000000000000000, 0.0000000000000000000 ) ) ;
#207 = APPROVAL_DATE_TIME ( #124, #168 ) ;
#208 = EDGE_CURVE ( 'NONE', #133, #192, #106, .T. ) ;
#209 = LINE ( 'NONE', #213, #154 ) ;
#210 = DIRECTION ( 'NONE',  ( 4.163336342344336500E-016, -1.000000000000000000, 0.0000000000000000000 ) ) ;
#211 = FACE_OUTER_BOUND ( 'NONE', #54, .T. ) ;
#212 = ORIENTED_EDGE ( 'NONE', *, *, #3, .F. ) ;
#213 = CARTESIAN_POINT ( 'NONE',  ( -12.49999999999999500, -12.50000000000000400, 3.000000000000000000 ) ) ;
#214 = CARTESIAN_POINT ( 'NONE',  ( 12.49999999999999500, 12.50000000000000000, 0.0000000000000000000 ) ) ;
#215 = ADVANCED_FACE ( 'NONE', ( #15 ), #114, .F. ) ;
#216 = CARTESIAN_POINT ( 'NONE',  ( 12.50000000000000500, -12.50000000000000000, 3.000000000000000000 ) ) ;
#217 = APPROVAL_PERSON_ORGANIZATION ( #74, #71, #62 ) ;
#218 = ORIENTED_EDGE ( 'NONE', *, *, #193, .F. ) ;
#219 = AXIS2_PLACEMENT_3D ( 'NONE', #86, #169, #210 ) ;
#220 = CC_DESIGN_PERSON_AND_ORGANIZATION_ASSIGNMENT ( #190, #96, ( #64 ) ) ;
#221 = DATE_AND_TIME ( #140, #48 ) ;
#222 = PRODUCT_DEFINITION_SHAPE ( 'NONE', 'NONE',  #134 ) ;
#223 = AXIS2_PLACEMENT_3D ( 'NONE', #163, #49, #182 ) ;
#224 = APPROVAL_DATE_TIME ( #94, #189 ) ;
#225 = APPLICATION_CONTEXT ( 'configuration controlled 3d designs of mechanical parts and assemblies' ) ;
#226 = ORIENTED_EDGE ( 'NONE', *, *, #47, .F. ) ;
#227 = APPROVAL_ROLE ( '' ) ;
#228 = CALENDAR_DATE ( 2017, 31, 1 ) ;
#229 = ORIENTED_EDGE ( 'NONE', *, *, #230, .F. ) ;
#230 = EDGE_CURVE ( 'NONE', #192, #8, #120, .T. ) ;
#231 = PERSON ( 'UNSPECIFIED', 'UNSPECIFIED', 'UNSPECIFIED', ('UNSPECIFIED'), ('UNSPECIFIED'), ('UNSPECIFIED') ) ;
#232 = VECTOR ( 'NONE', #148, 1000.000000000000000 ) ;
#233 = VERTEX_POINT ( 'NONE', #100 ) ;
#234 = DIRECTION ( 'NONE',  ( 1.387778780781445700E-016, -1.000000000000000000, 0.0000000000000000000 ) ) ;
#235 = CC_DESIGN_DATE_AND_TIME_ASSIGNMENT ( #181, #116, ( #121 ) ) ;
#236 = DIRECTION ( 'NONE',  ( -1.000000000000000000, 0.0000000000000000000, -0.0000000000000000000 ) ) ;
#237 = CC_DESIGN_PERSON_AND_ORGANIZATION_ASSIGNMENT ( #127, #80, ( #187 ) ) ;
ENDSEC;
END-ISO-10303-21;
