ISO-10303-21;
HEADER;
FILE_DESCRIPTION (( 'STEP AP203' ),
    '1' );
FILE_NAME ('Web Model 68157_20918.step',
    '2022-03-15T19:21:10',
    ( '' ),
    ( '' ),
    'SwSTEP 2.0',
    'SolidWorks 2021',
    '' );
FILE_SCHEMA (( 'CONFIG_CONTROL_DESIGN' ));
ENDSEC;

DATA;
#1 = AXIS2_PLACEMENT_3D ( 'NONE', #57, #93, #163 ) ;
#2 = VERTEX_POINT ( 'NONE', #69 ) ;
#3 = PRODUCT ( 'Web Model 68157_20918', 'Web Model 68157_20918', '', ( #75 ) ) ;
#4 = DIRECTION ( 'NONE',  ( 1.000000000000000000, 0.000000000000000000, 0.000000000000000000 ) ) ;
#5 = DIRECTION ( 'NONE',  ( 1.000000000000000000, 0.000000000000000000, -0.000000000000000000 ) ) ;
#6 = CARTESIAN_POINT ( 'NONE',  ( -6.349999999999999645, 0.000000000000000000, 0.5000000000000000000 ) ) ;
#7 = APPLICATION_CONTEXT ( 'configuration controlled 3d designs of mechanical parts and assemblies' ) ;
#8 = PERSON_AND_ORGANIZATION ( #19, #171 ) ;
#9 = APPROVAL_PERSON_ORGANIZATION ( #8, #118, #60 ) ;
#10 = DATE_TIME_ROLE ( 'creation_date' ) ;
#11 = UNCERTAINTY_MEASURE_WITH_UNIT (LENGTH_MEASURE( 1.000000000000000082E-05 ), #92, 'distance_accuracy_value', 'NONE');
#12 = PERSON_AND_ORGANIZATION ( #19, #171 ) ;
#13 = CC_DESIGN_APPROVAL ( #118, ( #134 ) ) ;
#14 = PERSON_AND_ORGANIZATION_ROLE ( 'creator' ) ;
#15 = EDGE_LOOP ( 'NONE', ( #158, #77, #79, #65 ) ) ;
#16 = ORIENTED_EDGE ( 'NONE', *, *, #27, .T. ) ;
#17 = CARTESIAN_POINT ( 'NONE',  ( 0.000000000000000000, 0.000000000000000000, 0.000000000000000000 ) ) ;
#18 = CARTESIAN_POINT ( 'NONE',  ( 0.000000000000000000, 0.000000000000000000, 0.000000000000000000 ) ) ;
#19 = PERSON ( 'UNSPECIFIED', 'UNSPECIFIED', 'UNSPECIFIED', ('UNSPECIFIED'), ('UNSPECIFIED'), ('UNSPECIFIED') ) ;
#20 =( GEOMETRIC_REPRESENTATION_CONTEXT ( 3 ) GLOBAL_UNCERTAINTY_ASSIGNED_CONTEXT ( ( #11 ) ) GLOBAL_UNIT_ASSIGNED_CONTEXT ( ( #92, #138, #140 ) ) REPRESENTATION_CONTEXT ( 'NONE', 'WORKASPACE' ) );
#21 = FACE_OUTER_BOUND ( 'NONE', #15, .T. ) ;
#22 = DIRECTION ( 'NONE',  ( 0.000000000000000000, 0.000000000000000000, 1.000000000000000000 ) ) ;
#23 = SHAPE_DEFINITION_REPRESENTATION ( #78, #145 ) ;
#24 = DESIGN_CONTEXT ( 'detailed design', #109, 'design' ) ;
#25 = DATE_AND_TIME ( #142, #62 ) ;
#26 = DATE_AND_TIME ( #61, #82 ) ;
#27 = EDGE_CURVE ( 'NONE', #103, #83, #112, .T. ) ;
#28 = AXIS2_PLACEMENT_3D ( 'NONE', #45, #154, #136 ) ;
#29 = CARTESIAN_POINT ( 'NONE',  ( 0.000000000000000000, 0.000000000000000000, 0.5000000000000000000 ) ) ;
#30 = DIRECTION ( 'NONE',  ( -0.000000000000000000, -0.000000000000000000, -1.000000000000000000 ) ) ;
#31 = APPROVAL_PERSON_ORGANIZATION ( #130, #51, #49 ) ;
#32 = FACE_OUTER_BOUND ( 'NONE', #52, .T. ) ;
#33 = EDGE_CURVE ( 'NONE', #2, #83, #125, .T. ) ;
#34 = DATE_TIME_ROLE ( 'classification_date' ) ;
#35 = CALENDAR_DATE ( 2022, 15, 3 ) ;
#36 = APPROVAL_STATUS ( 'not_yet_approved' ) ;
#37 = COORDINATED_UNIVERSAL_TIME_OFFSET ( 5, 0, .BEHIND. ) ;
#38 = ADVANCED_FACE ( 'NONE', ( #21 ), #110, .T. ) ;
#39 = ORIENTED_EDGE ( 'NONE', *, *, #147, .F. ) ;
#40 = VECTOR ( 'NONE', #66, 1000.000000000000000 ) ;
#41 = CC_DESIGN_PERSON_AND_ORGANIZATION_ASSIGNMENT ( #129, #87, ( #139 ) ) ;
#42 = CLOSED_SHELL ( 'NONE', ( #169, #38, #120, #137 ) ) ;
#43 = CARTESIAN_POINT ( 'NONE',  ( 0.000000000000000000, 0.000000000000000000, 0.5000000000000000000 ) ) ;
#44 = PLANE ( 'NONE',  #28 ) ;
#45 = CARTESIAN_POINT ( 'NONE',  ( 0.000000000000000000, 0.000000000000000000, 0.000000000000000000 ) ) ;
#46 = APPROVAL_STATUS ( 'not_yet_approved' ) ;
#47 = VECTOR ( 'NONE', #81, 1000.000000000000000 ) ;
#48 = PERSON_AND_ORGANIZATION ( #19, #171 ) ;
#49 = APPROVAL_ROLE ( '' ) ;
#50 = ORIENTED_EDGE ( 'NONE', *, *, #97, .F. ) ;
#51 = APPROVAL ( #36, 'UNSPECIFIED' ) ;
#52 = EDGE_LOOP ( 'NONE', ( #50, #101, #16, #135 ) ) ;
#53 = CYLINDRICAL_SURFACE ( 'NONE', #55, 6.349999999999999645 ) ;
#54 = APPLICATION_PROTOCOL_DEFINITION ( 'international standard', 'config_control_design', 1994, #7 ) ;
#55 = AXIS2_PLACEMENT_3D ( 'NONE', #43, #30, #105 ) ;
#56 = CC_DESIGN_PERSON_AND_ORGANIZATION_ASSIGNMENT ( #12, #14, ( #114 ) ) ;
#57 = CARTESIAN_POINT ( 'NONE',  ( 0.000000000000000000, 0.000000000000000000, 0.000000000000000000 ) ) ;
#58 = CARTESIAN_POINT ( 'NONE',  ( 0.000000000000000000, 0.000000000000000000, 0.5000000000000000000 ) ) ;
#59 = CARTESIAN_POINT ( 'NONE',  ( 6.349999999999999645, 7.776507174585692163E-16, 0.5000000000000000000 ) ) ;
#60 = APPROVAL_ROLE ( '' ) ;
#61 = CALENDAR_DATE ( 2022, 15, 3 ) ;
#62 = LOCAL_TIME ( 15, 21, 10.00000000000000000, #89 ) ;
#63 = PERSON_AND_ORGANIZATION ( #19, #171 ) ;
#64 = APPROVAL_DATE_TIME ( #25, #51 ) ;
#65 = ORIENTED_EDGE ( 'NONE', *, *, #147, .T. ) ;
#66 = DIRECTION ( 'NONE',  ( -0.000000000000000000, -0.000000000000000000, -1.000000000000000000 ) ) ;
#67 = AXIS2_PLACEMENT_3D ( 'NONE', #29, #22, #4 ) ;
#68 = FACE_OUTER_BOUND ( 'NONE', #102, .T. ) ;
#69 = CARTESIAN_POINT ( 'NONE',  ( -6.349999999999999645, 0.000000000000000000, 0.5000000000000000000 ) ) ;
#70 = DIRECTION ( 'NONE',  ( 1.000000000000000000, 0.000000000000000000, 0.000000000000000000 ) ) ;
#71 = AXIS2_PLACEMENT_3D ( 'NONE', #58, #126, #124 ) ;
#72 = PERSON_AND_ORGANIZATION ( #19, #171 ) ;
#73 = LOCAL_TIME ( 15, 21, 10.00000000000000000, #37 ) ;
#74 = CALENDAR_DATE ( 2022, 15, 3 ) ;
#75 = MECHANICAL_CONTEXT ( 'NONE', #7, 'mechanical' ) ;
#76 = ORIENTED_EDGE ( 'NONE', *, *, #97, .T. ) ;
#77 = ORIENTED_EDGE ( 'NONE', *, *, #151, .F. ) ;
#78 = PRODUCT_DEFINITION_SHAPE ( 'NONE', 'NONE',  #114 ) ;
#79 = ORIENTED_EDGE ( 'NONE', *, *, #33, .T. ) ;
#80 = CC_DESIGN_DATE_AND_TIME_ASSIGNMENT ( #157, #10, ( #114 ) ) ;
#81 = DIRECTION ( 'NONE',  ( -0.000000000000000000, -0.000000000000000000, -1.000000000000000000 ) ) ;
#82 = LOCAL_TIME ( 15, 21, 10.00000000000000000, #146 ) ;
#83 = VERTEX_POINT ( 'NONE', #167 ) ;
#84 = PERSON_AND_ORGANIZATION ( #19, #171 ) ;
#85 = APPROVAL ( #96, 'UNSPECIFIED' ) ;
#86 = SECURITY_CLASSIFICATION_LEVEL ( 'unclassified' ) ;
#87 = PERSON_AND_ORGANIZATION_ROLE ( 'design_supplier' ) ;
#88 = PRODUCT_RELATED_PRODUCT_CATEGORY ( 'detail', '', ( #3 ) ) ;
#89 = COORDINATED_UNIVERSAL_TIME_OFFSET ( 5, 0, .BEHIND. ) ;
#90 = VERTEX_POINT ( 'NONE', #59 ) ;
#91 = CC_DESIGN_PERSON_AND_ORGANIZATION_ASSIGNMENT ( #84, #128, ( #3 ) ) ;
#92 =( LENGTH_UNIT ( ) NAMED_UNIT ( * ) SI_UNIT ( .MILLI., .METRE. ) );
#93 = DIRECTION ( 'NONE',  ( 0.000000000000000000, 0.000000000000000000, 1.000000000000000000 ) ) ;
#94 = CIRCLE ( 'NONE', #67, 6.349999999999999645 ) ;
#95 = CARTESIAN_POINT ( 'NONE',  ( 0.000000000000000000, 0.000000000000000000, 0.5000000000000000000 ) ) ;
#96 = APPROVAL_STATUS ( 'not_yet_approved' ) ;
#97 = EDGE_CURVE ( 'NONE', #90, #2, #116, .T. ) ;
#98 = AXIS2_PLACEMENT_3D ( 'NONE', #95, #152, #108 ) ;
#99 = COORDINATED_UNIVERSAL_TIME_OFFSET ( 5, 0, .BEHIND. ) ;
#100 = APPLICATION_PROTOCOL_DEFINITION ( 'international standard', 'config_control_design', 1994, #109 ) ;
#101 = ORIENTED_EDGE ( 'NONE', *, *, #162, .T. ) ;
#102 = EDGE_LOOP ( 'NONE', ( #131, #76 ) ) ;
#103 = VERTEX_POINT ( 'NONE', #123 ) ;
#104 = CC_DESIGN_DATE_AND_TIME_ASSIGNMENT ( #26, #34, ( #134 ) ) ;
#105 = DIRECTION ( 'NONE',  ( -1.000000000000000000, 0.000000000000000000, 0.000000000000000000 ) ) ;
#106 = DIRECTION ( 'NONE',  ( 0.000000000000000000, 0.000000000000000000, 1.000000000000000000 ) ) ;
#107 = AXIS2_PLACEMENT_3D ( 'NONE', #18, #106, #70 ) ;
#108 = DIRECTION ( 'NONE',  ( -1.000000000000000000, 0.000000000000000000, 0.000000000000000000 ) ) ;
#109 = APPLICATION_CONTEXT ( 'configuration controlled 3d designs of mechanical parts and assemblies' ) ;
#110 = CYLINDRICAL_SURFACE ( 'NONE', #98, 6.349999999999999645 ) ;
#111 = CARTESIAN_POINT ( 'NONE',  ( 6.349999999999999645, 7.776507174585692163E-16, 0.5000000000000000000 ) ) ;
#112 = CIRCLE ( 'NONE', #107, 6.349999999999999645 ) ;
#113 = COORDINATED_UNIVERSAL_TIME_OFFSET ( 5, 0, .BEHIND. ) ;
#114 = PRODUCT_DEFINITION ( 'UNKNOWN', '', #139, #24 ) ;
#115 = APPROVAL_DATE_TIME ( #155, #85 ) ;
#116 = CIRCLE ( 'NONE', #71, 6.349999999999999645 ) ;
#117 = DIRECTION ( 'NONE',  ( 1.000000000000000000, 0.000000000000000000, 0.000000000000000000 ) ) ;
#118 = APPROVAL ( #46, 'UNSPECIFIED' ) ;
#119 = DIRECTION ( 'NONE',  ( 0.000000000000000000, 0.000000000000000000, 1.000000000000000000 ) ) ;
#120 = ADVANCED_FACE ( 'NONE', ( #68 ), #161, .T. ) ;
#121 = CC_DESIGN_SECURITY_CLASSIFICATION ( #134, ( #139 ) ) ;
#122 = CC_DESIGN_PERSON_AND_ORGANIZATION_ASSIGNMENT ( #72, #144, ( #134 ) ) ;
#123 = CARTESIAN_POINT ( 'NONE',  ( 6.349999999999999645, 7.776507174585692163E-16, 0.000000000000000000 ) ) ;
#124 = DIRECTION ( 'NONE',  ( 1.000000000000000000, 0.000000000000000000, 0.000000000000000000 ) ) ;
#125 = LINE ( 'NONE', #6, #47 ) ;
#126 = DIRECTION ( 'NONE',  ( 0.000000000000000000, 0.000000000000000000, 1.000000000000000000 ) ) ;
#127 = APPROVAL_PERSON_ORGANIZATION ( #48, #85, #170 ) ;
#128 = PERSON_AND_ORGANIZATION_ROLE ( 'design_owner' ) ;
#129 = PERSON_AND_ORGANIZATION ( #19, #171 ) ;
#130 = PERSON_AND_ORGANIZATION ( #19, #171 ) ;
#131 = ORIENTED_EDGE ( 'NONE', *, *, #151, .T. ) ;
#132 = LOCAL_TIME ( 15, 21, 10.00000000000000000, #99 ) ;
#133 = EDGE_LOOP ( 'NONE', ( #39, #159 ) ) ;
#134 = SECURITY_CLASSIFICATION ( '', '', #86 ) ;
#135 = ORIENTED_EDGE ( 'NONE', *, *, #33, .F. ) ;
#136 = DIRECTION ( 'NONE',  ( 1.000000000000000000, 0.000000000000000000, -0.000000000000000000 ) ) ;
#137 = ADVANCED_FACE ( 'NONE', ( #141 ), #44, .F. ) ;
#138 =( NAMED_UNIT ( * ) PLANE_ANGLE_UNIT ( ) SI_UNIT ( $, .RADIAN. ) );
#139 = PRODUCT_DEFINITION_FORMATION_WITH_SPECIFIED_SOURCE ( 'ANY', '', #3, .NOT_KNOWN. ) ;
#140 =( NAMED_UNIT ( * ) SI_UNIT ( $, .STERADIAN. ) SOLID_ANGLE_UNIT ( ) );
#141 = FACE_OUTER_BOUND ( 'NONE', #133, .T. ) ;
#142 = CALENDAR_DATE ( 2022, 15, 3 ) ;
#143 = CC_DESIGN_APPROVAL ( #85, ( #114 ) ) ;
#144 = PERSON_AND_ORGANIZATION_ROLE ( 'classification_officer' ) ;
#145 = ADVANCED_BREP_SHAPE_REPRESENTATION ( 'Web Model 68157_20918', ( #175, #150 ), #20 ) ;
#146 = COORDINATED_UNIVERSAL_TIME_OFFSET ( 5, 0, .BEHIND. ) ;
#147 = EDGE_CURVE ( 'NONE', #83, #103, #149, .T. ) ;
#148 = AXIS2_PLACEMENT_3D ( 'NONE', #165, #164, #5 ) ;
#149 = CIRCLE ( 'NONE', #1, 6.349999999999999645 ) ;
#150 = AXIS2_PLACEMENT_3D ( 'NONE', #17, #119, #117 ) ;
#151 = EDGE_CURVE ( 'NONE', #2, #90, #94, .T. ) ;
#152 = DIRECTION ( 'NONE',  ( -0.000000000000000000, -0.000000000000000000, -1.000000000000000000 ) ) ;
#153 = LINE ( 'NONE', #111, #40 ) ;
#154 = DIRECTION ( 'NONE',  ( 0.000000000000000000, 0.000000000000000000, 1.000000000000000000 ) ) ;
#155 = DATE_AND_TIME ( #74, #132 ) ;
#156 = CALENDAR_DATE ( 2022, 15, 3 ) ;
#157 = DATE_AND_TIME ( #156, #73 ) ;
#158 = ORIENTED_EDGE ( 'NONE', *, *, #162, .F. ) ;
#159 = ORIENTED_EDGE ( 'NONE', *, *, #27, .F. ) ;
#160 = CC_DESIGN_APPROVAL ( #51, ( #139 ) ) ;
#161 = PLANE ( 'NONE',  #148 ) ;
#162 = EDGE_CURVE ( 'NONE', #90, #103, #153, .T. ) ;
#163 = DIRECTION ( 'NONE',  ( 1.000000000000000000, 0.000000000000000000, 0.000000000000000000 ) ) ;
#164 = DIRECTION ( 'NONE',  ( 0.000000000000000000, 0.000000000000000000, 1.000000000000000000 ) ) ;
#165 = CARTESIAN_POINT ( 'NONE',  ( 0.000000000000000000, 0.000000000000000000, 0.5000000000000000000 ) ) ;
#166 = CC_DESIGN_PERSON_AND_ORGANIZATION_ASSIGNMENT ( #63, #173, ( #139 ) ) ;
#167 = CARTESIAN_POINT ( 'NONE',  ( -6.349999999999999645, 0.000000000000000000, 0.000000000000000000 ) ) ;
#168 = APPROVAL_DATE_TIME ( #172, #118 ) ;
#169 = ADVANCED_FACE ( 'NONE', ( #32 ), #53, .T. ) ;
#170 = APPROVAL_ROLE ( '' ) ;
#171 = ORGANIZATION ( 'UNSPECIFIED', 'UNSPECIFIED', '' ) ;
#172 = DATE_AND_TIME ( #35, #174 ) ;
#173 = PERSON_AND_ORGANIZATION_ROLE ( 'creator' ) ;
#174 = LOCAL_TIME ( 15, 21, 10.00000000000000000, #113 ) ;
#175 = MANIFOLD_SOLID_BREP ( 'Boss-Extrude1', #42 ) ;
ENDSEC;
END-ISO-10303-21;
