ISO-10303-21;
HEADER;
FILE_DESCRIPTION (( 'STEP AP203' ),
    '1' );
FILE_NAME ('Web Model 45309_11919.step',
    '2019-01-07T15:44:15',
    ( '' ),
    ( '' ),
    'SwSTEP 2.0',
    'SolidWorks 2016',
    '' );
FILE_SCHEMA (( 'CONFIG_CONTROL_DESIGN' ));
ENDSEC;

DATA;
#1 = CALENDAR_DATE ( 2019, 7, 1 ) ;
#2 = CARTESIAN_POINT ( 'NONE',  ( 0.0000000000000000000, 0.0000000000000000000, 1.000000000000000000 ) ) ;
#3 = DIRECTION ( 'NONE',  ( -1.000000000000000000, 0.0000000000000000000, 0.0000000000000000000 ) ) ;
#4 = COORDINATED_UNIVERSAL_TIME_OFFSET ( 5, 0, .BEHIND. ) ;
#5 = CC_DESIGN_PERSON_AND_ORGANIZATION_ASSIGNMENT ( #141, #101, ( #63 ) ) ;
#6 = CIRCLE ( 'NONE', #151, 6.250000000000000000 ) ;
#7 = CALENDAR_DATE ( 2019, 7, 1 ) ;
#8 = CC_DESIGN_DATE_AND_TIME_ASSIGNMENT ( #49, #55, ( #149 ) ) ;
#9 = AXIS2_PLACEMENT_3D ( 'NONE', #68, #81, #98 ) ;
#10 = VECTOR ( 'NONE', #66, 1000.000000000000000 ) ;
#11 = CC_DESIGN_PERSON_AND_ORGANIZATION_ASSIGNMENT ( #171, #18, ( #149 ) ) ;
#12 = DIRECTION ( 'NONE',  ( 1.000000000000000000, 0.0000000000000000000, -0.0000000000000000000 ) ) ;
#13 = APPROVAL_ROLE ( '' ) ;
#14 = VERTEX_POINT ( 'NONE', #52 ) ;
#15 = APPROVAL ( #85, 'UNSPECIFIED' ) ;
#16 = PERSON_AND_ORGANIZATION_ROLE ( 'design_owner' ) ;
#17 = COORDINATED_UNIVERSAL_TIME_OFFSET ( 5, 0, .BEHIND. ) ;
#18 = PERSON_AND_ORGANIZATION_ROLE ( 'classification_officer' ) ;
#19 = CC_DESIGN_APPROVAL ( #74, ( #80 ) ) ;
#20 = LOCAL_TIME ( 10, 44, 15.00000000000000000, #39 ) ;
#21 = APPROVAL_DATE_TIME ( #71, #74 ) ;
#22 = AXIS2_PLACEMENT_3D ( 'NONE', #36, #35, #135 ) ;
#23 = AXIS2_PLACEMENT_3D ( 'NONE', #125, #168, #3 ) ;
#24 = CARTESIAN_POINT ( 'NONE',  ( -6.250000000000000000, 0.0000000000000000000, -1.000000000000000000 ) ) ;
#25 = CIRCLE ( 'NONE', #153, 6.250000000000000000 ) ;
#26 = CARTESIAN_POINT ( 'NONE',  ( 0.0000000000000000000, 0.0000000000000000000, -1.000000000000000000 ) ) ;
#27 = DIRECTION ( 'NONE',  ( 0.0000000000000000000, 0.0000000000000000000, 1.000000000000000000 ) ) ;
#28 = APPLICATION_CONTEXT ( 'configuration controlled 3d designs of mechanical parts and assemblies' ) ;
#29 = APPROVAL_PERSON_ORGANIZATION ( #46, #91, #57 ) ;
#30 = LINE ( 'NONE', #37, #10 ) ;
#31 = PERSON_AND_ORGANIZATION ( #58, #77 ) ;
#32 = CC_DESIGN_PERSON_AND_ORGANIZATION_ASSIGNMENT ( #31, #53, ( #80 ) ) ;
#33 = PERSON_AND_ORGANIZATION ( #58, #77 ) ;
#34 = UNCERTAINTY_MEASURE_WITH_UNIT (LENGTH_MEASURE( 1.000000000000000100E-005 ), #136, 'distance_accuracy_value', 'NONE');
#35 = DIRECTION ( 'NONE',  ( -0.0000000000000000000, -0.0000000000000000000, -1.000000000000000000 ) ) ;
#36 = CARTESIAN_POINT ( 'NONE',  ( 0.0000000000000000000, 0.0000000000000000000, 1.000000000000000000 ) ) ;
#37 = CARTESIAN_POINT ( 'NONE',  ( 6.250000000000000000, 7.654042494670957600E-016, 1.000000000000000000 ) ) ;
#38 = DIRECTION ( 'NONE',  ( 1.000000000000000000, 0.0000000000000000000, 0.0000000000000000000 ) ) ;
#39 = COORDINATED_UNIVERSAL_TIME_OFFSET ( 5, 0, .BEHIND. ) ;
#40 = PLANE ( 'NONE',  #99 ) ;
#41 = CARTESIAN_POINT ( 'NONE',  ( -6.250000000000000000, 0.0000000000000000000, 1.000000000000000000 ) ) ;
#42 = ORIENTED_EDGE ( 'NONE', *, *, #164, .T. ) ;
#43 = DATE_TIME_ROLE ( 'creation_date' ) ;
#44 = CC_DESIGN_PERSON_AND_ORGANIZATION_ASSIGNMENT ( #60, #16, ( #161 ) ) ;
#45 = VECTOR ( 'NONE', #137, 1000.000000000000000 ) ;
#46 = PERSON_AND_ORGANIZATION ( #58, #77 ) ;
#47 = EDGE_LOOP ( 'NONE', ( #56, #48 ) ) ;
#48 = ORIENTED_EDGE ( 'NONE', *, *, #147, .T. ) ;
#49 = DATE_AND_TIME ( #89, #129 ) ;
#50 =( GEOMETRIC_REPRESENTATION_CONTEXT ( 3 ) GLOBAL_UNCERTAINTY_ASSIGNED_CONTEXT ( ( #34 ) ) GLOBAL_UNIT_ASSIGNED_CONTEXT ( ( #136, #51, #95 ) ) REPRESENTATION_CONTEXT ( 'NONE', 'WORKASPACE' ) );
#51 =( NAMED_UNIT ( * ) PLANE_ANGLE_UNIT ( ) SI_UNIT ( $, .RADIAN. ) );
#52 = CARTESIAN_POINT ( 'NONE',  ( 6.250000000000000000, 7.654042494670957600E-016, 1.000000000000000000 ) ) ;
#53 = PERSON_AND_ORGANIZATION_ROLE ( 'creator' ) ;
#54 = APPROVAL_DATE_TIME ( #100, #91 ) ;
#55 = DATE_TIME_ROLE ( 'classification_date' ) ;
#56 = ORIENTED_EDGE ( 'NONE', *, *, #113, .T. ) ;
#57 = APPROVAL_ROLE ( '' ) ;
#58 = PERSON ( 'UNSPECIFIED', 'UNSPECIFIED', 'UNSPECIFIED', ('UNSPECIFIED'), ('UNSPECIFIED'), ('UNSPECIFIED') ) ;
#59 = DATE_AND_TIME ( #1, #175 ) ;
#60 = PERSON_AND_ORGANIZATION ( #58, #77 ) ;
#61 = DESIGN_CONTEXT ( 'detailed design', #79, 'design' ) ;
#62 = ADVANCED_FACE ( 'NONE', ( #83 ), #75, .T. ) ;
#63 = PRODUCT_DEFINITION_FORMATION_WITH_SPECIFIED_SOURCE ( 'ANY', '', #161, .NOT_KNOWN. ) ;
#64 = ORIENTED_EDGE ( 'NONE', *, *, #120, .F. ) ;
#65 = COORDINATED_UNIVERSAL_TIME_OFFSET ( 5, 0, .BEHIND. ) ;
#66 = DIRECTION ( 'NONE',  ( -0.0000000000000000000, -0.0000000000000000000, -1.000000000000000000 ) ) ;
#67 = VERTEX_POINT ( 'NONE', #97 ) ;
#68 = CARTESIAN_POINT ( 'NONE',  ( 0.0000000000000000000, 0.0000000000000000000, 1.000000000000000000 ) ) ;
#69 = DIRECTION ( 'NONE',  ( 0.0000000000000000000, 0.0000000000000000000, 1.000000000000000000 ) ) ;
#70 = DIRECTION ( 'NONE',  ( 0.0000000000000000000, 0.0000000000000000000, 1.000000000000000000 ) ) ;
#71 = DATE_AND_TIME ( #93, #20 ) ;
#72 = ORIENTED_EDGE ( 'NONE', *, *, #120, .T. ) ;
#73 = APPROVAL_DATE_TIME ( #121, #15 ) ;
#74 = APPROVAL ( #124, 'UNSPECIFIED' ) ;
#75 = CYLINDRICAL_SURFACE ( 'NONE', #22, 6.250000000000000000 ) ;
#76 = ADVANCED_FACE ( 'NONE', ( #174 ), #40, .T. ) ;
#77 = ORGANIZATION ( 'UNSPECIFIED', 'UNSPECIFIED', '' ) ;
#78 = LINE ( 'NONE', #110, #45 ) ;
#79 = APPLICATION_CONTEXT ( 'configuration controlled 3d designs of mechanical parts and assemblies' ) ;
#80 = PRODUCT_DEFINITION ( 'UNKNOWN', '', #63, #61 ) ;
#81 = DIRECTION ( 'NONE',  ( 0.0000000000000000000, 0.0000000000000000000, 1.000000000000000000 ) ) ;
#82 = DIRECTION ( 'NONE',  ( 1.000000000000000000, 0.0000000000000000000, 0.0000000000000000000 ) ) ;
#83 = FACE_OUTER_BOUND ( 'NONE', #106, .T. ) ;
#84 = PLANE ( 'NONE',  #139 ) ;
#85 = APPROVAL_STATUS ( 'not_yet_approved' ) ;
#86 = SECURITY_CLASSIFICATION_LEVEL ( 'unclassified' ) ;
#87 = EDGE_LOOP ( 'NONE', ( #130, #42, #72, #103 ) ) ;
#88 = CC_DESIGN_APPROVAL ( #15, ( #149 ) ) ;
#89 = CALENDAR_DATE ( 2019, 7, 1 ) ;
#90 = VERTEX_POINT ( 'NONE', #24 ) ;
#91 = APPROVAL ( #145, 'UNSPECIFIED' ) ;
#92 = ADVANCED_BREP_SHAPE_REPRESENTATION ( 'Web Model 45309_11919', ( #117, #144 ), #50 ) ;
#93 = CALENDAR_DATE ( 2019, 7, 1 ) ;
#94 = CC_DESIGN_APPROVAL ( #91, ( #63 ) ) ;
#95 =( NAMED_UNIT ( * ) SI_UNIT ( $, .STERADIAN. ) SOLID_ANGLE_UNIT ( ) );
#96 = FACE_OUTER_BOUND ( 'NONE', #146, .T. ) ;
#97 = CARTESIAN_POINT ( 'NONE',  ( 6.250000000000000000, 7.654042494670957600E-016, -1.000000000000000000 ) ) ;
#98 = DIRECTION ( 'NONE',  ( 1.000000000000000000, 0.0000000000000000000, 0.0000000000000000000 ) ) ;
#99 = AXIS2_PLACEMENT_3D ( 'NONE', #2, #69, #109 ) ;
#100 = DATE_AND_TIME ( #134, #152 ) ;
#101 = PERSON_AND_ORGANIZATION_ROLE ( 'design_supplier' ) ;
#102 = CC_DESIGN_DATE_AND_TIME_ASSIGNMENT ( #59, #43, ( #80 ) ) ;
#103 = ORIENTED_EDGE ( 'NONE', *, *, #142, .F. ) ;
#104 = PERSON_AND_ORGANIZATION ( #58, #77 ) ;
#105 = ORIENTED_EDGE ( 'NONE', *, *, #131, .T. ) ;
#106 = EDGE_LOOP ( 'NONE', ( #159, #133, #122, #105 ) ) ;
#107 = CARTESIAN_POINT ( 'NONE',  ( 0.0000000000000000000, 0.0000000000000000000, -1.000000000000000000 ) ) ;
#108 = CC_DESIGN_SECURITY_CLASSIFICATION ( #149, ( #63 ) ) ;
#109 = DIRECTION ( 'NONE',  ( 1.000000000000000000, 0.0000000000000000000, -0.0000000000000000000 ) ) ;
#110 = CARTESIAN_POINT ( 'NONE',  ( -6.250000000000000000, 0.0000000000000000000, 1.000000000000000000 ) ) ;
#111 = COORDINATED_UNIVERSAL_TIME_OFFSET ( 5, 0, .BEHIND. ) ;
#112 = DIRECTION ( 'NONE',  ( 0.0000000000000000000, 0.0000000000000000000, 1.000000000000000000 ) ) ;
#113 = EDGE_CURVE ( 'NONE', #172, #14, #160, .T. ) ;
#114 = PRODUCT_DEFINITION_SHAPE ( 'NONE', 'NONE',  #80 ) ;
#115 = SHAPE_DEFINITION_REPRESENTATION ( #114, #92 ) ;
#116 = CYLINDRICAL_SURFACE ( 'NONE', #23, 6.250000000000000000 ) ;
#117 = MANIFOLD_SOLID_BREP ( 'Boss-Extrude1', #150 ) ;
#118 = CIRCLE ( 'NONE', #123, 6.250000000000000000 ) ;
#119 = ADVANCED_FACE ( 'NONE', ( #163 ), #116, .T. ) ;
#120 = EDGE_CURVE ( 'NONE', #67, #90, #25, .T. ) ;
#121 = DATE_AND_TIME ( #7, #162 ) ;
#122 = ORIENTED_EDGE ( 'NONE', *, *, #142, .T. ) ;
#123 = AXIS2_PLACEMENT_3D ( 'NONE', #26, #170, #140 ) ;
#124 = APPROVAL_STATUS ( 'not_yet_approved' ) ;
#125 = CARTESIAN_POINT ( 'NONE',  ( 0.0000000000000000000, 0.0000000000000000000, 1.000000000000000000 ) ) ;
#126 = DIRECTION ( 'NONE',  ( 0.0000000000000000000, 0.0000000000000000000, 1.000000000000000000 ) ) ;
#127 = DIRECTION ( 'NONE',  ( 1.000000000000000000, 0.0000000000000000000, 0.0000000000000000000 ) ) ;
#128 = PRODUCT_RELATED_PRODUCT_CATEGORY ( 'detail', '', ( #161 ) ) ;
#129 = LOCAL_TIME ( 10, 44, 15.00000000000000000, #111 ) ;
#130 = ORIENTED_EDGE ( 'NONE', *, *, #147, .F. ) ;
#131 = EDGE_CURVE ( 'NONE', #90, #67, #118, .T. ) ;
#132 = APPROVAL_PERSON_ORGANIZATION ( #104, #74, #13 ) ;
#133 = ORIENTED_EDGE ( 'NONE', *, *, #113, .F. ) ;
#134 = CALENDAR_DATE ( 2019, 7, 1 ) ;
#135 = DIRECTION ( 'NONE',  ( -1.000000000000000000, 0.0000000000000000000, 0.0000000000000000000 ) ) ;
#136 =( LENGTH_UNIT ( ) NAMED_UNIT ( * ) SI_UNIT ( .MILLI., .METRE. ) );
#137 = DIRECTION ( 'NONE',  ( -0.0000000000000000000, -0.0000000000000000000, -1.000000000000000000 ) ) ;
#138 = CARTESIAN_POINT ( 'NONE',  ( 0.0000000000000000000, 0.0000000000000000000, -1.000000000000000000 ) ) ;
#139 = AXIS2_PLACEMENT_3D ( 'NONE', #107, #126, #12 ) ;
#140 = DIRECTION ( 'NONE',  ( 1.000000000000000000, 0.0000000000000000000, 0.0000000000000000000 ) ) ;
#141 = PERSON_AND_ORGANIZATION ( #58, #77 ) ;
#142 = EDGE_CURVE ( 'NONE', #172, #90, #78, .T. ) ;
#143 = PERSON_AND_ORGANIZATION_ROLE ( 'creator' ) ;
#144 = AXIS2_PLACEMENT_3D ( 'NONE', #154, #112, #38 ) ;
#145 = APPROVAL_STATUS ( 'not_yet_approved' ) ;
#146 = EDGE_LOOP ( 'NONE', ( #167, #64 ) ) ;
#147 = EDGE_CURVE ( 'NONE', #14, #172, #6, .T. ) ;
#148 = APPROVAL_PERSON_ORGANIZATION ( #33, #15, #158 ) ;
#149 = SECURITY_CLASSIFICATION ( '', '', #86 ) ;
#150 = CLOSED_SHELL ( 'NONE', ( #119, #62, #76, #165 ) ) ;
#151 = AXIS2_PLACEMENT_3D ( 'NONE', #157, #70, #127 ) ;
#152 = LOCAL_TIME ( 10, 44, 15.00000000000000000, #4 ) ;
#153 = AXIS2_PLACEMENT_3D ( 'NONE', #138, #27, #82 ) ;
#154 = CARTESIAN_POINT ( 'NONE',  ( 0.0000000000000000000, 0.0000000000000000000, 0.0000000000000000000 ) ) ;
#155 = APPLICATION_PROTOCOL_DEFINITION ( 'international standard', 'config_control_design', 1994, #28 ) ;
#156 = APPLICATION_PROTOCOL_DEFINITION ( 'international standard', 'config_control_design', 1994, #79 ) ;
#157 = CARTESIAN_POINT ( 'NONE',  ( 0.0000000000000000000, 0.0000000000000000000, 1.000000000000000000 ) ) ;
#158 = APPROVAL_ROLE ( '' ) ;
#159 = ORIENTED_EDGE ( 'NONE', *, *, #164, .F. ) ;
#160 = CIRCLE ( 'NONE', #9, 6.250000000000000000 ) ;
#161 = PRODUCT ( 'Web Model 45309_11919', 'Web Model 45309_11919', '', ( #169 ) ) ;
#162 = LOCAL_TIME ( 10, 44, 15.00000000000000000, #17 ) ;
#163 = FACE_OUTER_BOUND ( 'NONE', #87, .T. ) ;
#164 = EDGE_CURVE ( 'NONE', #14, #67, #30, .T. ) ;
#165 = ADVANCED_FACE ( 'NONE', ( #96 ), #84, .F. ) ;
#166 = PERSON_AND_ORGANIZATION ( #58, #77 ) ;
#167 = ORIENTED_EDGE ( 'NONE', *, *, #131, .F. ) ;
#168 = DIRECTION ( 'NONE',  ( -0.0000000000000000000, -0.0000000000000000000, -1.000000000000000000 ) ) ;
#169 = MECHANICAL_CONTEXT ( 'NONE', #28, 'mechanical' ) ;
#170 = DIRECTION ( 'NONE',  ( 0.0000000000000000000, 0.0000000000000000000, 1.000000000000000000 ) ) ;
#171 = PERSON_AND_ORGANIZATION ( #58, #77 ) ;
#172 = VERTEX_POINT ( 'NONE', #41 ) ;
#173 = CC_DESIGN_PERSON_AND_ORGANIZATION_ASSIGNMENT ( #166, #143, ( #63 ) ) ;
#174 = FACE_OUTER_BOUND ( 'NONE', #47, .T. ) ;
#175 = LOCAL_TIME ( 10, 44, 15.00000000000000000, #65 ) ;
ENDSEC;
END-ISO-10303-21;
