ISO-10303-21;
HEADER;
FILE_DESCRIPTION (( 'STEP AP203' ),
    '1' );
FILE_NAME ('Web Model 20464_20536.step',
    '2022-06-06T20:41:57',
    ( 'WC' ),
    ( 'Windows Central' ),
    'SwSTEP 2.0',
    'SolidWorks 2021',
    '' );
FILE_SCHEMA (( 'CONFIG_CONTROL_DESIGN' ));
ENDSEC;

DATA;
#1 = EDGE_LOOP ( 'NONE', ( #169, #170, #154, #70 ) ) ;
#2 = EDGE_LOOP ( 'NONE', ( #100, #116 ) ) ;
#3 = APPLICATION_CONTEXT ( 'configuration controlled 3d designs of mechanical parts and assemblies' ) ;
#4 = DIRECTION ( 'NONE',  ( -1.000000000000000000, 0.000000000000000000, 0.000000000000000000 ) ) ;
#5 = EDGE_CURVE ( 'NONE', #127, #123, #137, .T. ) ;
#6 = DIRECTION ( 'NONE',  ( 0.000000000000000000, 0.000000000000000000, 1.000000000000000000 ) ) ;
#7 = APPROVAL_STATUS ( 'not_yet_approved' ) ;
#8 = APPROVAL ( #7, 'UNSPECIFIED' ) ;
#9 = APPROVAL_ROLE ( '' ) ;
#10 = CC_DESIGN_SECURITY_CLASSIFICATION ( #75, ( #158 ) ) ;
#11 = DIRECTION ( 'NONE',  ( -1.000000000000000000, 0.000000000000000000, 0.000000000000000000 ) ) ;
#12 = DATE_TIME_ROLE ( 'classification_date' ) ;
#13 = AXIS2_PLACEMENT_3D ( 'NONE', #143, #25, #4 ) ;
#14 = APPROVAL_DATE_TIME ( #136, #71 ) ;
#15 = PERSON_AND_ORGANIZATION ( #95, #59 ) ;
#16 = ORIENTED_EDGE ( 'NONE', *, *, #72, .T. ) ;
#17 = CC_DESIGN_PERSON_AND_ORGANIZATION_ASSIGNMENT ( #22, #133, ( #75 ) ) ;
#18 = ORIENTED_EDGE ( 'NONE', *, *, #72, .F. ) ;
#19 = CALENDAR_DATE ( 2022, 6, 6 ) ;
#21 = LINE ( 'NONE', #141, #44 ) ;
#20 = PERSON_AND_ORGANIZATION_ROLE ( 'design_owner' ) ;
#22 = PERSON_AND_ORGANIZATION ( #95, #59 ) ;
#24 = CARTESIAN_POINT ( 'NONE',  ( 0.000000000000000000, 0.000000000000000000, 0.000000000000000000 ) ) ;
#23 = PERSON_AND_ORGANIZATION ( #95, #59 ) ;
#25 = DIRECTION ( 'NONE',  ( -0.000000000000000000, -0.000000000000000000, -1.000000000000000000 ) ) ;
#26 =( GEOMETRIC_REPRESENTATION_CONTEXT ( 3 ) GLOBAL_UNCERTAINTY_ASSIGNED_CONTEXT ( ( #106 ) ) GLOBAL_UNIT_ASSIGNED_CONTEXT ( ( #112, #29, #110 ) ) REPRESENTATION_CONTEXT ( 'NONE', 'WORKASPACE' ) );
#27 = COORDINATED_UNIVERSAL_TIME_OFFSET ( 5, 0, .BEHIND. ) ;
#28 = CYLINDRICAL_SURFACE ( 'NONE', #49, 20.00000000000000000 ) ;
#29 =( NAMED_UNIT ( * ) PLANE_ANGLE_UNIT ( ) SI_UNIT ( $, .RADIAN. ) );
#30 = COORDINATED_UNIVERSAL_TIME_OFFSET ( 5, 0, .BEHIND. ) ;
#31 = APPROVAL_STATUS ( 'not_yet_approved' ) ;
#32 = EDGE_CURVE ( 'NONE', #123, #127, #33, .T. ) ;
#33 = CIRCLE ( 'NONE', #124, 20.00000000000000000 ) ;
#34 = PRODUCT ( 'Web Model 20464_20536', 'Web Model 20464_20536', '', ( #37 ) ) ;
#35 = ORIENTED_EDGE ( 'NONE', *, *, #5, .F. ) ;
#36 = ADVANCED_FACE ( 'NONE', ( #119 ), #64, .T. ) ;
#38 = DIRECTION ( 'NONE',  ( 1.000000000000000000, 0.000000000000000000, 0.000000000000000000 ) ) ;
#37 = MECHANICAL_CONTEXT ( 'NONE', #155, 'mechanical' ) ;
#39 = APPROVAL_PERSON_ORGANIZATION ( #23, #175, #96 ) ;
#40 = PLANE ( 'NONE',  #58 ) ;
#41 = PERSON_AND_ORGANIZATION ( #95, #59 ) ;
#42 = CARTESIAN_POINT ( 'NONE',  ( 0.000000000000000000, 0.000000000000000000, 2.000000000000000000 ) ) ;
#43 = COORDINATED_UNIVERSAL_TIME_OFFSET ( 5, 0, .BEHIND. ) ;
#44 = VECTOR ( 'NONE', #104, 1000.000000000000000 ) ;
#45 = ADVANCED_FACE ( 'NONE', ( #79 ), #77, .T. ) ;
#46 = AXIS2_PLACEMENT_3D ( 'NONE', #24, #171, #172 ) ;
#47 = ORIENTED_EDGE ( 'NONE', *, *, #135, .F. ) ;
#48 = EDGE_LOOP ( 'NONE', ( #150, #35, #73, #16 ) ) ;
#49 = AXIS2_PLACEMENT_3D ( 'NONE', #134, #83, #11 ) ;
#50 = DIRECTION ( 'NONE',  ( 1.000000000000000000, 0.000000000000000000, -0.000000000000000000 ) ) ;
#51 = CARTESIAN_POINT ( 'NONE',  ( 20.00000000000000000, 2.449293598294706513E-15, 0.000000000000000000 ) ) ;
#52 = VECTOR ( 'NONE', #102, 1000.000000000000000 ) ;
#53 = CARTESIAN_POINT ( 'NONE',  ( 0.000000000000000000, 0.000000000000000000, 0.000000000000000000 ) ) ;
#54 = CARTESIAN_POINT ( 'NONE',  ( 0.000000000000000000, 0.000000000000000000, 0.000000000000000000 ) ) ;
#55 = APPROVAL_DATE_TIME ( #66, #8 ) ;
#56 = LOCAL_TIME ( 16, 41, 57.00000000000000000, #30 ) ;
#57 = CC_DESIGN_DATE_AND_TIME_ASSIGNMENT ( #98, #12, ( #75 ) ) ;
#58 = AXIS2_PLACEMENT_3D ( 'NONE', #53, #92, #50 ) ;
#59 = ORGANIZATION ( 'UNSPECIFIED', 'UNSPECIFIED', '' ) ;
#60 = LOCAL_TIME ( 16, 41, 57.00000000000000000, #163 ) ;
#61 = CLOSED_SHELL ( 'NONE', ( #36, #149, #45, #111 ) ) ;
#62 = PRODUCT_DEFINITION ( 'UNKNOWN', '', #158, #93 ) ;
#63 = DIRECTION ( 'NONE',  ( 1.000000000000000000, 0.000000000000000000, -0.000000000000000000 ) ) ;
#64 = CYLINDRICAL_SURFACE ( 'NONE', #13, 20.00000000000000000 ) ;
#65 = APPROVAL_ROLE ( '' ) ;
#66 = DATE_AND_TIME ( #144, #60 ) ;
#67 = ADVANCED_BREP_SHAPE_REPRESENTATION ( 'Web Model 20464_20536', ( #68, #109 ), #26 ) ;
#68 = MANIFOLD_SOLID_BREP ( 'Boss-Extrude1', #61 ) ;
#69 = CIRCLE ( 'NONE', #151, 20.00000000000000000 ) ;
#70 = ORIENTED_EDGE ( 'NONE', *, *, #99, .F. ) ;
#71 = APPROVAL ( #31, 'UNSPECIFIED' ) ;
#72 = EDGE_CURVE ( 'NONE', #138, #125, #91, .T. ) ;
#73 = ORIENTED_EDGE ( 'NONE', *, *, #99, .T. ) ;
#74 = LOCAL_TIME ( 16, 41, 57.00000000000000000, #27 ) ;
#75 = SECURITY_CLASSIFICATION ( '', '', #114 ) ;
#77 = PLANE ( 'NONE',  #115 ) ;
#76 = APPLICATION_PROTOCOL_DEFINITION ( 'international standard', 'config_control_design', 1994, #3 ) ;
#78 = FACE_OUTER_BOUND ( 'NONE', #101, .T. ) ;
#79 = FACE_OUTER_BOUND ( 'NONE', #2, .T. ) ;
#80 = APPROVAL_DATE_TIME ( #165, #175 ) ;
#81 = APPLICATION_PROTOCOL_DEFINITION ( 'international standard', 'config_control_design', 1994, #155 ) ;
#82 = DATE_AND_TIME ( #146, #126 ) ;
#83 = DIRECTION ( 'NONE',  ( -0.000000000000000000, -0.000000000000000000, -1.000000000000000000 ) ) ;
#84 = CC_DESIGN_PERSON_AND_ORGANIZATION_ASSIGNMENT ( #164, #122, ( #158 ) ) ;
#85 = PERSON_AND_ORGANIZATION_ROLE ( 'design_supplier' ) ;
#86 = FACE_OUTER_BOUND ( 'NONE', #48, .T. ) ;
#87 = CC_DESIGN_PERSON_AND_ORGANIZATION_ASSIGNMENT ( #15, #85, ( #158 ) ) ;
#88 = CARTESIAN_POINT ( 'NONE',  ( 0.000000000000000000, 0.000000000000000000, 2.000000000000000000 ) ) ;
#90 = DIRECTION ( 'NONE',  ( 1.000000000000000000, 0.000000000000000000, 0.000000000000000000 ) ) ;
#89 = PERSON_AND_ORGANIZATION ( #95, #59 ) ;
#91 = CIRCLE ( 'NONE', #46, 20.00000000000000000 ) ;
#92 = DIRECTION ( 'NONE',  ( 0.000000000000000000, 0.000000000000000000, 1.000000000000000000 ) ) ;
#93 = DESIGN_CONTEXT ( 'detailed design', #3, 'design' ) ;
#94 = DIRECTION ( 'NONE',  ( 1.000000000000000000, 0.000000000000000000, 0.000000000000000000 ) ) ;
#95 = PERSON ( 'UNSPECIFIED', 'UNSPECIFIED', 'UNSPECIFIED', ('UNSPECIFIED'), ('UNSPECIFIED'), ('UNSPECIFIED') ) ;
#96 = APPROVAL_ROLE ( '' ) ;
#97 = DATE_TIME_ROLE ( 'creation_date' ) ;
#98 = DATE_AND_TIME ( #148, #56 ) ;
#99 = EDGE_CURVE ( 'NONE', #127, #138, #21, .T. ) ;
#100 = ORIENTED_EDGE ( 'NONE', *, *, #5, .T. ) ;
#101 = EDGE_LOOP ( 'NONE', ( #18, #47 ) ) ;
#102 = DIRECTION ( 'NONE',  ( -0.000000000000000000, -0.000000000000000000, -1.000000000000000000 ) ) ;
#103 = CC_DESIGN_PERSON_AND_ORGANIZATION_ASSIGNMENT ( #130, #167, ( #62 ) ) ;
#104 = DIRECTION ( 'NONE',  ( -0.000000000000000000, -0.000000000000000000, -1.000000000000000000 ) ) ;
#105 = CARTESIAN_POINT ( 'NONE',  ( 20.00000000000000000, 2.449293598294706513E-15, 2.000000000000000000 ) ) ;
#106 = UNCERTAINTY_MEASURE_WITH_UNIT (LENGTH_MEASURE( 1.000000000000000082E-05 ), #112, 'distance_accuracy_value', 'NONE');
#107 = APPROVAL_STATUS ( 'not_yet_approved' ) ;
#108 = CALENDAR_DATE ( 2022, 6, 6 ) ;
#109 = AXIS2_PLACEMENT_3D ( 'NONE', #54, #156, #153 ) ;
#110 =( NAMED_UNIT ( * ) SI_UNIT ( $, .STERADIAN. ) SOLID_ANGLE_UNIT ( ) );
#111 = ADVANCED_FACE ( 'NONE', ( #78 ), #40, .F. ) ;
#112 =( LENGTH_UNIT ( ) NAMED_UNIT ( * ) SI_UNIT ( .MILLI., .METRE. ) );
#113 = AXIS2_PLACEMENT_3D ( 'NONE', #88, #140, #90 ) ;
#114 = SECURITY_CLASSIFICATION_LEVEL ( 'unclassified' ) ;
#115 = AXIS2_PLACEMENT_3D ( 'NONE', #42, #160, #63 ) ;
#116 = ORIENTED_EDGE ( 'NONE', *, *, #32, .T. ) ;
#117 = EDGE_CURVE ( 'NONE', #123, #125, #118, .T. ) ;
#118 = LINE ( 'NONE', #129, #52 ) ;
#119 = FACE_OUTER_BOUND ( 'NONE', #1, .T. ) ;
#120 = PERSON_AND_ORGANIZATION ( #95, #59 ) ;
#121 = CC_DESIGN_PERSON_AND_ORGANIZATION_ASSIGNMENT ( #89, #20, ( #34 ) ) ;
#122 = PERSON_AND_ORGANIZATION_ROLE ( 'creator' ) ;
#123 = VERTEX_POINT ( 'NONE', #105 ) ;
#124 = AXIS2_PLACEMENT_3D ( 'NONE', #128, #6, #94 ) ;
#125 = VERTEX_POINT ( 'NONE', #51 ) ;
#126 = LOCAL_TIME ( 16, 41, 57.00000000000000000, #43 ) ;
#127 = VERTEX_POINT ( 'NONE', #142 ) ;
#128 = CARTESIAN_POINT ( 'NONE',  ( 0.000000000000000000, 0.000000000000000000, 2.000000000000000000 ) ) ;
#129 = CARTESIAN_POINT ( 'NONE',  ( 20.00000000000000000, 2.449293598294706513E-15, 2.000000000000000000 ) ) ;
#130 = PERSON_AND_ORGANIZATION ( #95, #59 ) ;
#131 = APPROVAL_PERSON_ORGANIZATION ( #41, #8, #65 ) ;
#132 = CARTESIAN_POINT ( 'NONE',  ( -20.00000000000000000, 0.000000000000000000, 0.000000000000000000 ) ) ;
#133 = PERSON_AND_ORGANIZATION_ROLE ( 'classification_officer' ) ;
#134 = CARTESIAN_POINT ( 'NONE',  ( 0.000000000000000000, 0.000000000000000000, 2.000000000000000000 ) ) ;
#135 = EDGE_CURVE ( 'NONE', #125, #138, #69, .T. ) ;
#136 = DATE_AND_TIME ( #19, #152 ) ;
#137 = CIRCLE ( 'NONE', #113, 20.00000000000000000 ) ;
#138 = VERTEX_POINT ( 'NONE', #132 ) ;
#139 = CC_DESIGN_APPROVAL ( #8, ( #158 ) ) ;
#140 = DIRECTION ( 'NONE',  ( 0.000000000000000000, 0.000000000000000000, 1.000000000000000000 ) ) ;
#141 = CARTESIAN_POINT ( 'NONE',  ( -20.00000000000000000, 0.000000000000000000, 2.000000000000000000 ) ) ;
#142 = CARTESIAN_POINT ( 'NONE',  ( -20.00000000000000000, 0.000000000000000000, 2.000000000000000000 ) ) ;
#143 = CARTESIAN_POINT ( 'NONE',  ( 0.000000000000000000, 0.000000000000000000, 2.000000000000000000 ) ) ;
#144 = CALENDAR_DATE ( 2022, 6, 6 ) ;
#145 = CC_DESIGN_APPROVAL ( #175, ( #62 ) ) ;
#146 = CALENDAR_DATE ( 2022, 6, 6 ) ;
#147 = CC_DESIGN_DATE_AND_TIME_ASSIGNMENT ( #82, #97, ( #62 ) ) ;
#148 = CALENDAR_DATE ( 2022, 6, 6 ) ;
#149 = ADVANCED_FACE ( 'NONE', ( #86 ), #28, .T. ) ;
#150 = ORIENTED_EDGE ( 'NONE', *, *, #117, .F. ) ;
#151 = AXIS2_PLACEMENT_3D ( 'NONE', #161, #157, #38 ) ;
#152 = LOCAL_TIME ( 16, 41, 57.00000000000000000, #173 ) ;
#154 = ORIENTED_EDGE ( 'NONE', *, *, #135, .T. ) ;
#153 = DIRECTION ( 'NONE',  ( 1.000000000000000000, 0.000000000000000000, 0.000000000000000000 ) ) ;
#155 = APPLICATION_CONTEXT ( 'configuration controlled 3d designs of mechanical parts and assemblies' ) ;
#157 = DIRECTION ( 'NONE',  ( 0.000000000000000000, 0.000000000000000000, 1.000000000000000000 ) ) ;
#156 = DIRECTION ( 'NONE',  ( 0.000000000000000000, 0.000000000000000000, 1.000000000000000000 ) ) ;
#158 = PRODUCT_DEFINITION_FORMATION_WITH_SPECIFIED_SOURCE ( 'ANY', '', #34, .NOT_KNOWN. ) ;
#159 = APPROVAL_PERSON_ORGANIZATION ( #120, #71, #9 ) ;
#160 = DIRECTION ( 'NONE',  ( 0.000000000000000000, 0.000000000000000000, 1.000000000000000000 ) ) ;
#161 = CARTESIAN_POINT ( 'NONE',  ( 0.000000000000000000, 0.000000000000000000, 0.000000000000000000 ) ) ;
#162 = SHAPE_DEFINITION_REPRESENTATION ( #168, #67 ) ;
#163 = COORDINATED_UNIVERSAL_TIME_OFFSET ( 5, 0, .BEHIND. ) ;
#164 = PERSON_AND_ORGANIZATION ( #95, #59 ) ;
#165 = DATE_AND_TIME ( #108, #74 ) ;
#166 = CC_DESIGN_APPROVAL ( #71, ( #75 ) ) ;
#167 = PERSON_AND_ORGANIZATION_ROLE ( 'creator' ) ;
#168 = PRODUCT_DEFINITION_SHAPE ( 'NONE', 'NONE',  #62 ) ;
#169 = ORIENTED_EDGE ( 'NONE', *, *, #32, .F. ) ;
#170 = ORIENTED_EDGE ( 'NONE', *, *, #117, .T. ) ;
#171 = DIRECTION ( 'NONE',  ( 0.000000000000000000, 0.000000000000000000, 1.000000000000000000 ) ) ;
#172 = DIRECTION ( 'NONE',  ( 1.000000000000000000, 0.000000000000000000, 0.000000000000000000 ) ) ;
#173 = COORDINATED_UNIVERSAL_TIME_OFFSET ( 5, 0, .BEHIND. ) ;
#174 = PRODUCT_RELATED_PRODUCT_CATEGORY ( 'detail', '', ( #34 ) ) ;
#175 = APPROVAL ( #107, 'UNSPECIFIED' ) ;
ENDSEC;
END-ISO-10303-21;
