ISO-10303-21;
HEADER;
FILE_DESCRIPTION (( 'STEP AP203' ),
    '1' );
FILE_NAME ('Web Model 48854_48854.step',
    '2020-10-07T17:33:21',
    ( '' ),
    ( '' ),
    'SwSTEP 2.0',
    'SolidWorks 2018',
    '' );
FILE_SCHEMA (( 'CONFIG_CONTROL_DESIGN' ));
ENDSEC;

DATA;
#1 = ADVANCED_FACE ( 'NONE', ( #2 ), #129, .T. ) ;
#2 = FACE_OUTER_BOUND ( 'NONE', #32, .T. ) ;
#3 = CALENDAR_DATE ( 2020, 7, 10 ) ;
#4 = DIRECTION ( 'NONE',  ( 1.000000000000000000, 0.0000000000000000000, 0.0000000000000000000 ) ) ;
#5 = EDGE_CURVE ( 'NONE', #38, #80, #168, .T. ) ;
#6 = COORDINATED_UNIVERSAL_TIME_OFFSET ( 5, 0, .BEHIND. ) ;
#7 = ORIENTED_EDGE ( 'NONE', *, *, #84, .F. ) ;
#8 = ORIENTED_EDGE ( 'NONE', *, *, #84, .T. ) ;
#9 = FACE_OUTER_BOUND ( 'NONE', #31, .T. ) ;
#10 = DIRECTION ( 'NONE',  ( 1.000000000000000000, 0.0000000000000000000, -0.0000000000000000000 ) ) ;
#11 = APPROVAL_DATE_TIME ( #161, #128 ) ;
#12 = APPROVAL_PERSON_ORGANIZATION ( #23, #128, #120 ) ;
#13 = APPLICATION_PROTOCOL_DEFINITION ( 'international standard', 'config_control_design', 1994, #174 ) ;
#14 = SECURITY_CLASSIFICATION_LEVEL ( 'unclassified' ) ;
#15 = ORIENTED_EDGE ( 'NONE', *, *, #123, .T. ) ;
#16 = CC_DESIGN_PERSON_AND_ORGANIZATION_ASSIGNMENT ( #17, #175, ( #150 ) ) ;
#17 = PERSON_AND_ORGANIZATION ( #79, #125 ) ;
#18 = ADVANCED_FACE ( 'NONE', ( #69 ), #142, .F. ) ;
#19 = APPROVAL_PERSON_ORGANIZATION ( #50, #159, #157 ) ;
#20 = CC_DESIGN_DATE_AND_TIME_ASSIGNMENT ( #55, #143, ( #28 ) ) ;
#21 = EDGE_CURVE ( 'NONE', #38, #107, #95, .T. ) ;
#22 = CARTESIAN_POINT ( 'NONE',  ( 7.500000000000000000, 9.184850993605147944E-16, 1.000000000000000000 ) ) ;
#23 = PERSON_AND_ORGANIZATION ( #79, #125 ) ;
#24 = VECTOR ( 'NONE', #155, 1000.000000000000000 ) ;
#25 = DIRECTION ( 'NONE',  ( -1.000000000000000000, 0.0000000000000000000, 0.0000000000000000000 ) ) ;
#26 = CARTESIAN_POINT ( 'NONE',  ( 0.0000000000000000000, 0.0000000000000000000, -1.000000000000000000 ) ) ;
#27 = ADVANCED_FACE ( 'NONE', ( #29 ), #86, .T. ) ;
#28 = PRODUCT_DEFINITION ( 'UNKNOWN', '', #150, #111 ) ;
#29 = FACE_OUTER_BOUND ( 'NONE', #98, .T. ) ;
#30 = APPROVAL_DATE_TIME ( #71, #35 ) ;
#31 = EDGE_LOOP ( 'NONE', ( #61, #156, #135, #70 ) ) ;
#32 = EDGE_LOOP ( 'NONE', ( #68, #8 ) ) ;
#33 = PERSON_AND_ORGANIZATION ( #79, #125 ) ;
#34 = DIRECTION ( 'NONE',  ( 0.0000000000000000000, 0.0000000000000000000, 1.000000000000000000 ) ) ;
#35 = APPROVAL ( #65, 'UNSPECIFIED' ) ;
#36 = CARTESIAN_POINT ( 'NONE',  ( 0.0000000000000000000, 0.0000000000000000000, -1.000000000000000000 ) ) ;
#37 = DIRECTION ( 'NONE',  ( 0.0000000000000000000, 0.0000000000000000000, 1.000000000000000000 ) ) ;
#38 = VERTEX_POINT ( 'NONE', #114 ) ;
#39 = CC_DESIGN_PERSON_AND_ORGANIZATION_ASSIGNMENT ( #148, #52, ( #28 ) ) ;
#40 = DIRECTION ( 'NONE',  ( 0.0000000000000000000, 0.0000000000000000000, 1.000000000000000000 ) ) ;
#41 = CARTESIAN_POINT ( 'NONE',  ( 0.0000000000000000000, 0.0000000000000000000, -1.000000000000000000 ) ) ;
#42 = VECTOR ( 'NONE', #110, 1000.000000000000000 ) ;
#43 = LOCAL_TIME ( 13, 33, 21.00000000000000000, #6 ) ;
#44 = CALENDAR_DATE ( 2020, 7, 10 ) ;
#45 = COORDINATED_UNIVERSAL_TIME_OFFSET ( 5, 0, .BEHIND. ) ;
#46 = EDGE_LOOP ( 'NONE', ( #91, #136 ) ) ;
#47 = DIRECTION ( 'NONE',  ( 0.0000000000000000000, 0.0000000000000000000, 1.000000000000000000 ) ) ;
#48 = CC_DESIGN_APPROVAL ( #35, ( #28 ) ) ;
#49 = LOCAL_TIME ( 13, 33, 21.00000000000000000, #94 ) ;
#50 = PERSON_AND_ORGANIZATION ( #79, #125 ) ;
#51 = DIRECTION ( 'NONE',  ( 1.000000000000000000, 0.0000000000000000000, -0.0000000000000000000 ) ) ;
#52 = PERSON_AND_ORGANIZATION_ROLE ( 'creator' ) ;
#53 = VERTEX_POINT ( 'NONE', #141 ) ;
#54 = APPROVAL_STATUS ( 'not_yet_approved' ) ;
#55 = DATE_AND_TIME ( #97, #133 ) ;
#56 = DIRECTION ( 'NONE',  ( 1.000000000000000000, 0.0000000000000000000, 0.0000000000000000000 ) ) ;
#57 = SECURITY_CLASSIFICATION ( '', '', #14 ) ;
#58 = AXIS2_PLACEMENT_3D ( 'NONE', #73, #34, #75 ) ;
#59 = CC_DESIGN_APPROVAL ( #159, ( #150 ) ) ;
#60 = PRODUCT_DEFINITION_SHAPE ( 'NONE', 'NONE',  #28 ) ;
#61 = ORIENTED_EDGE ( 'NONE', *, *, #138, .F. ) ;
#62 = DIRECTION ( 'NONE',  ( 0.0000000000000000000, 0.0000000000000000000, 1.000000000000000000 ) ) ;
#63 = APPROVAL_STATUS ( 'not_yet_approved' ) ;
#64 = MECHANICAL_CONTEXT ( 'NONE', #109, 'mechanical' ) ;
#65 = APPROVAL_STATUS ( 'not_yet_approved' ) ;
#66 = ORIENTED_EDGE ( 'NONE', *, *, #138, .T. ) ;
#67 = CC_DESIGN_DATE_AND_TIME_ASSIGNMENT ( #152, #158, ( #57 ) ) ;
#68 = ORIENTED_EDGE ( 'NONE', *, *, #5, .T. ) ;
#69 = FACE_OUTER_BOUND ( 'NONE', #46, .T. ) ;
#70 = ORIENTED_EDGE ( 'NONE', *, *, #167, .T. ) ;
#71 = DATE_AND_TIME ( #3, #43 ) ;
#72 = CARTESIAN_POINT ( 'NONE',  ( -7.500000000000000000, 0.0000000000000000000, -1.000000000000000000 ) ) ;
#73 = CARTESIAN_POINT ( 'NONE',  ( 0.0000000000000000000, 0.0000000000000000000, 1.000000000000000000 ) ) ;
#74 = COORDINATED_UNIVERSAL_TIME_OFFSET ( 5, 0, .BEHIND. ) ;
#75 = DIRECTION ( 'NONE',  ( 1.000000000000000000, 0.0000000000000000000, 0.0000000000000000000 ) ) ;
#76 =( LENGTH_UNIT ( ) NAMED_UNIT ( * ) SI_UNIT ( .MILLI., .METRE. ) );
#77 = LOCAL_TIME ( 13, 33, 21.00000000000000000, #116 ) ;
#78 = LINE ( 'NONE', #146, #42 ) ;
#79 = PERSON ( 'UNSPECIFIED', 'UNSPECIFIED', 'UNSPECIFIED', ('UNSPECIFIED'), ('UNSPECIFIED'), ('UNSPECIFIED') ) ;
#80 = VERTEX_POINT ( 'NONE', #22 ) ;
#81 = AXIS2_PLACEMENT_3D ( 'NONE', #104, #171, #172 ) ;
#82 = PERSON_AND_ORGANIZATION ( #79, #125 ) ;
#83 = CIRCLE ( 'NONE', #127, 7.500000000000000000 ) ;
#84 = EDGE_CURVE ( 'NONE', #80, #38, #130, .T. ) ;
#85 = PERSON_AND_ORGANIZATION ( #79, #125 ) ;
#86 = CYLINDRICAL_SURFACE ( 'NONE', #81, 7.500000000000000000 ) ;
#87 = DIRECTION ( 'NONE',  ( -0.0000000000000000000, -0.0000000000000000000, -1.000000000000000000 ) ) ;
#88 = DIRECTION ( 'NONE',  ( 1.000000000000000000, 0.0000000000000000000, 0.0000000000000000000 ) ) ;
#89 = PERSON_AND_ORGANIZATION_ROLE ( 'design_supplier' ) ;
#90 =( NAMED_UNIT ( * ) SI_UNIT ( $, .STERADIAN. ) SOLID_ANGLE_UNIT ( ) );
#91 = ORIENTED_EDGE ( 'NONE', *, *, #167, .F. ) ;
#92 = CC_DESIGN_PERSON_AND_ORGANIZATION_ASSIGNMENT ( #113, #89, ( #150 ) ) ;
#93 =( NAMED_UNIT ( * ) PLANE_ANGLE_UNIT ( ) SI_UNIT ( $, .RADIAN. ) );
#94 = COORDINATED_UNIVERSAL_TIME_OFFSET ( 5, 0, .BEHIND. ) ;
#95 = LINE ( 'NONE', #140, #24 ) ;
#96 = PRODUCT ( 'Web Model 48854_48854', 'Web Model 48854_48854', '', ( #64 ) ) ;
#97 = CALENDAR_DATE ( 2020, 7, 10 ) ;
#98 = EDGE_LOOP ( 'NONE', ( #7, #66, #15, #173 ) ) ;
#99 = AXIS2_PLACEMENT_3D ( 'NONE', #36, #47, #10 ) ;
#100 = CARTESIAN_POINT ( 'NONE',  ( 0.0000000000000000000, 0.0000000000000000000, 1.000000000000000000 ) ) ;
#101 = LOCAL_TIME ( 13, 33, 21.00000000000000000, #45 ) ;
#102 = ADVANCED_BREP_SHAPE_REPRESENTATION ( 'Web Model 48854_48854', ( #170, #115 ), #165 ) ;
#103 = CARTESIAN_POINT ( 'NONE',  ( 0.0000000000000000000, 0.0000000000000000000, 1.000000000000000000 ) ) ;
#104 = CARTESIAN_POINT ( 'NONE',  ( 0.0000000000000000000, 0.0000000000000000000, 1.000000000000000000 ) ) ;
#105 = DIRECTION ( 'NONE',  ( 1.000000000000000000, 0.0000000000000000000, 0.0000000000000000000 ) ) ;
#106 = DIRECTION ( 'NONE',  ( 0.0000000000000000000, 0.0000000000000000000, 1.000000000000000000 ) ) ;
#107 = VERTEX_POINT ( 'NONE', #72 ) ;
#108 = CIRCLE ( 'NONE', #145, 7.500000000000000000 ) ;
#109 = APPLICATION_CONTEXT ( 'configuration controlled 3d designs of mechanical parts and assemblies' ) ;
#110 = DIRECTION ( 'NONE',  ( -0.0000000000000000000, -0.0000000000000000000, -1.000000000000000000 ) ) ;
#111 = DESIGN_CONTEXT ( 'detailed design', #174, 'design' ) ;
#112 = AXIS2_PLACEMENT_3D ( 'NONE', #100, #106, #88 ) ;
#113 = PERSON_AND_ORGANIZATION ( #79, #125 ) ;
#114 = CARTESIAN_POINT ( 'NONE',  ( -7.500000000000000000, 0.0000000000000000000, 1.000000000000000000 ) ) ;
#115 = AXIS2_PLACEMENT_3D ( 'NONE', #134, #37, #56 ) ;
#116 = COORDINATED_UNIVERSAL_TIME_OFFSET ( 5, 0, .BEHIND. ) ;
#117 = APPROVAL_ROLE ( '' ) ;
#118 = APPLICATION_PROTOCOL_DEFINITION ( 'international standard', 'config_control_design', 1994, #109 ) ;
#119 = ADVANCED_FACE ( 'NONE', ( #9 ), #166, .T. ) ;
#120 = APPROVAL_ROLE ( '' ) ;
#121 = CC_DESIGN_PERSON_AND_ORGANIZATION_ASSIGNMENT ( #82, #160, ( #57 ) ) ;
#122 = APPROVAL_DATE_TIME ( #154, #159 ) ;
#123 = EDGE_CURVE ( 'NONE', #53, #107, #83, .T. ) ;
#124 = CC_DESIGN_PERSON_AND_ORGANIZATION_ASSIGNMENT ( #85, #162, ( #96 ) ) ;
#125 = ORGANIZATION ( 'UNSPECIFIED', 'UNSPECIFIED', '' ) ;
#126 = PRODUCT_RELATED_PRODUCT_CATEGORY ( 'detail', '', ( #96 ) ) ;
#127 = AXIS2_PLACEMENT_3D ( 'NONE', #41, #40, #105 ) ;
#128 = APPROVAL ( #54, 'UNSPECIFIED' ) ;
#129 = PLANE ( 'NONE',  #131 ) ;
#130 = CIRCLE ( 'NONE', #112, 7.500000000000000000 ) ;
#131 = AXIS2_PLACEMENT_3D ( 'NONE', #103, #62, #51 ) ;
#132 = DIRECTION ( 'NONE',  ( 0.0000000000000000000, 0.0000000000000000000, 1.000000000000000000 ) ) ;
#133 = LOCAL_TIME ( 13, 33, 21.00000000000000000, #74 ) ;
#134 = CARTESIAN_POINT ( 'NONE',  ( 0.0000000000000000000, 0.0000000000000000000, 0.0000000000000000000 ) ) ;
#135 = ORIENTED_EDGE ( 'NONE', *, *, #21, .T. ) ;
#136 = ORIENTED_EDGE ( 'NONE', *, *, #123, .F. ) ;
#137 = CC_DESIGN_APPROVAL ( #128, ( #57 ) ) ;
#138 = EDGE_CURVE ( 'NONE', #80, #53, #78, .T. ) ;
#139 = APPROVAL_PERSON_ORGANIZATION ( #33, #35, #117 ) ;
#140 = CARTESIAN_POINT ( 'NONE',  ( -7.500000000000000000, 0.0000000000000000000, 1.000000000000000000 ) ) ;
#141 = CARTESIAN_POINT ( 'NONE',  ( 7.500000000000000000, 9.184850993605147944E-16, -1.000000000000000000 ) ) ;
#142 = PLANE ( 'NONE',  #99 ) ;
#143 = DATE_TIME_ROLE ( 'creation_date' ) ;
#144 = SHAPE_DEFINITION_REPRESENTATION ( #60, #102 ) ;
#145 = AXIS2_PLACEMENT_3D ( 'NONE', #26, #132, #4 ) ;
#146 = CARTESIAN_POINT ( 'NONE',  ( 7.500000000000000000, 9.184850993605147944E-16, 1.000000000000000000 ) ) ;
#147 = CC_DESIGN_SECURITY_CLASSIFICATION ( #57, ( #150 ) ) ;
#148 = PERSON_AND_ORGANIZATION ( #79, #125 ) ;
#149 = CALENDAR_DATE ( 2020, 7, 10 ) ;
#150 = PRODUCT_DEFINITION_FORMATION_WITH_SPECIFIED_SOURCE ( 'ANY', '', #96, .NOT_KNOWN. ) ;
#151 = CALENDAR_DATE ( 2020, 7, 10 ) ;
#152 = DATE_AND_TIME ( #151, #49 ) ;
#153 = AXIS2_PLACEMENT_3D ( 'NONE', #169, #87, #25 ) ;
#154 = DATE_AND_TIME ( #149, #101 ) ;
#155 = DIRECTION ( 'NONE',  ( -0.0000000000000000000, -0.0000000000000000000, -1.000000000000000000 ) ) ;
#156 = ORIENTED_EDGE ( 'NONE', *, *, #5, .F. ) ;
#157 = APPROVAL_ROLE ( '' ) ;
#158 = DATE_TIME_ROLE ( 'classification_date' ) ;
#159 = APPROVAL ( #63, 'UNSPECIFIED' ) ;
#160 = PERSON_AND_ORGANIZATION_ROLE ( 'classification_officer' ) ;
#161 = DATE_AND_TIME ( #44, #77 ) ;
#162 = PERSON_AND_ORGANIZATION_ROLE ( 'design_owner' ) ;
#163 = UNCERTAINTY_MEASURE_WITH_UNIT (LENGTH_MEASURE( 1.000000000000000082E-05 ), #76, 'distance_accuracy_value', 'NONE');
#164 = CLOSED_SHELL ( 'NONE', ( #27, #119, #1, #18 ) ) ;
#165 =( GEOMETRIC_REPRESENTATION_CONTEXT ( 3 ) GLOBAL_UNCERTAINTY_ASSIGNED_CONTEXT ( ( #163 ) ) GLOBAL_UNIT_ASSIGNED_CONTEXT ( ( #76, #93, #90 ) ) REPRESENTATION_CONTEXT ( 'NONE', 'WORKASPACE' ) );
#166 = CYLINDRICAL_SURFACE ( 'NONE', #153, 7.500000000000000000 ) ;
#167 = EDGE_CURVE ( 'NONE', #107, #53, #108, .T. ) ;
#168 = CIRCLE ( 'NONE', #58, 7.500000000000000000 ) ;
#169 = CARTESIAN_POINT ( 'NONE',  ( 0.0000000000000000000, 0.0000000000000000000, 1.000000000000000000 ) ) ;
#170 = MANIFOLD_SOLID_BREP ( 'Boss-Extrude1', #164 ) ;
#171 = DIRECTION ( 'NONE',  ( -0.0000000000000000000, -0.0000000000000000000, -1.000000000000000000 ) ) ;
#172 = DIRECTION ( 'NONE',  ( -1.000000000000000000, 0.0000000000000000000, 0.0000000000000000000 ) ) ;
#173 = ORIENTED_EDGE ( 'NONE', *, *, #21, .F. ) ;
#174 = APPLICATION_CONTEXT ( 'configuration controlled 3d designs of mechanical parts and assemblies' ) ;
#175 = PERSON_AND_ORGANIZATION_ROLE ( 'creator' ) ;
ENDSEC;
END-ISO-10303-21;
