ISO-10303-21;
HEADER;
FILE_DESCRIPTION (( 'STEP AP203' ),
    '1' );
FILE_NAME ('Web Model 19627_19627.step',
    '2022-01-11T21:31:52',
    ( '' ),
    ( '' ),
    'SwSTEP 2.0',
    'SolidWorks 2018',
    '' );
FILE_SCHEMA (( 'CONFIG_CONTROL_DESIGN' ));
ENDSEC;

DATA;
#1 = CC_DESIGN_DATE_AND_TIME_ASSIGNMENT ( #152, #54, ( #128 ) ) ;
#2 = APPROVAL_PERSON_ORGANIZATION ( #98, #157, #83 ) ;
#3 =( NAMED_UNIT ( * ) SI_UNIT ( $, .STERADIAN. ) SOLID_ANGLE_UNIT ( ) );
#4 = APPROVAL_STATUS ( 'not_yet_approved' ) ;
#5 = COORDINATED_UNIVERSAL_TIME_OFFSET ( 5, 0, .BEHIND. ) ;
#6 = CARTESIAN_POINT ( 'NONE',  ( 0.000000000000000000, 0.000000000000000000, 1.520000000000000018 ) ) ;
#7 = DIRECTION ( 'NONE',  ( -1.000000000000000000, 0.000000000000000000, 0.000000000000000000 ) ) ;
#8 = EDGE_CURVE ( 'NONE', #129, #68, #28, .T. ) ;
#9 = DIRECTION ( 'NONE',  ( 1.000000000000000000, 0.000000000000000000, 0.000000000000000000 ) ) ;
#10 = DATE_AND_TIME ( #121, #45 ) ;
#11 = LOCAL_TIME ( 16, 31, 52.00000000000000000, #105 ) ;
#12 = VERTEX_POINT ( 'NONE', #82 ) ;
#13 = AXIS2_PLACEMENT_3D ( 'NONE', #167, #95, #94 ) ;
#14 = CC_DESIGN_PERSON_AND_ORGANIZATION_ASSIGNMENT ( #84, #168, ( #32 ) ) ;
#15 = EDGE_LOOP ( 'NONE', ( #62, #101, #117, #41 ) ) ;
#16 = AXIS2_PLACEMENT_3D ( 'NONE', #6, #103, #35 ) ;
#17 = CARTESIAN_POINT ( 'NONE',  ( 0.000000000000000000, 0.000000000000000000, 1.520000000000000018 ) ) ;
#18 = DIRECTION ( 'NONE',  ( 0.000000000000000000, 0.000000000000000000, 1.000000000000000000 ) ) ;
#19 = VECTOR ( 'NONE', #55, 1000.000000000000000 ) ;
#20 = CC_DESIGN_SECURITY_CLASSIFICATION ( #73, ( #32 ) ) ;
#21 = APPLICATION_CONTEXT ( 'configuration controlled 3d designs of mechanical parts and assemblies' ) ;
#22 = MANIFOLD_SOLID_BREP ( 'Boss-Extrude1', #160 ) ;
#23 =( NAMED_UNIT ( * ) PLANE_ANGLE_UNIT ( ) SI_UNIT ( $, .RADIAN. ) );
#24 = ORIENTED_EDGE ( 'NONE', *, *, #86, .F. ) ;
#25 = APPROVAL ( #119, 'UNSPECIFIED' ) ;
#26 = PERSON_AND_ORGANIZATION ( #172, #51 ) ;
#27 = APPROVAL ( #145, 'UNSPECIFIED' ) ;
#28 = CIRCLE ( 'NONE', #155, 12.69999999999999929 ) ;
#29 = AXIS2_PLACEMENT_3D ( 'NONE', #17, #44, #71 ) ;
#30 = FACE_OUTER_BOUND ( 'NONE', #89, .T. ) ;
#31 = PERSON_AND_ORGANIZATION ( #172, #51 ) ;
#32 = PRODUCT_DEFINITION_FORMATION_WITH_SPECIFIED_SOURCE ( 'ANY', '', #59, .NOT_KNOWN. ) ;
#33 = DIRECTION ( 'NONE',  ( -0.000000000000000000, -0.000000000000000000, -1.000000000000000000 ) ) ;
#34 = CC_DESIGN_APPROVAL ( #157, ( #73 ) ) ;
#35 = DIRECTION ( 'NONE',  ( 1.000000000000000000, 0.000000000000000000, -0.000000000000000000 ) ) ;
#36 = APPLICATION_CONTEXT ( 'configuration controlled 3d designs of mechanical parts and assemblies' ) ;
#37 = PERSON_AND_ORGANIZATION_ROLE ( 'creator' ) ;
#38 = EDGE_CURVE ( 'NONE', #12, #68, #61, .T. ) ;
#39 = DIRECTION ( 'NONE',  ( 1.000000000000000000, 0.000000000000000000, -0.000000000000000000 ) ) ;
#40 = CALENDAR_DATE ( 2022, 11, 1 ) ;
#41 = ORIENTED_EDGE ( 'NONE', *, *, #149, .F. ) ;
#42 = ADVANCED_FACE ( 'NONE', ( #159 ), #79, .T. ) ;
#43 = UNCERTAINTY_MEASURE_WITH_UNIT (LENGTH_MEASURE( 1.000000000000000082E-05 ), #118, 'distance_accuracy_value', 'NONE');
#44 = DIRECTION ( 'NONE',  ( -0.000000000000000000, -0.000000000000000000, -1.000000000000000000 ) ) ;
#45 = LOCAL_TIME ( 16, 31, 52.00000000000000000, #81 ) ;
#46 = FACE_OUTER_BOUND ( 'NONE', #15, .T. ) ;
#47 = AXIS2_PLACEMENT_3D ( 'NONE', #92, #133, #9 ) ;
#48 = CALENDAR_DATE ( 2022, 11, 1 ) ;
#49 = PRODUCT_DEFINITION_SHAPE ( 'NONE', 'NONE',  #128 ) ;
#50 = CARTESIAN_POINT ( 'NONE',  ( -12.69999999999999929, 0.000000000000000000, 0.000000000000000000 ) ) ;
#51 = ORGANIZATION ( 'UNSPECIFIED', 'UNSPECIFIED', '' ) ;
#52 = ADVANCED_FACE ( 'NONE', ( #30 ), #66, .T. ) ;
#53 = CARTESIAN_POINT ( 'NONE',  ( 0.000000000000000000, 0.000000000000000000, 1.520000000000000018 ) ) ;
#54 = DATE_TIME_ROLE ( 'creation_date' ) ;
#55 = DIRECTION ( 'NONE',  ( -0.000000000000000000, -0.000000000000000000, -1.000000000000000000 ) ) ;
#56 = DESIGN_CONTEXT ( 'detailed design', #21, 'design' ) ;
#57 = AXIS2_PLACEMENT_3D ( 'NONE', #104, #131, #113 ) ;
#58 = ADVANCED_FACE ( 'NONE', ( #135 ), #144, .F. ) ;
#59 = PRODUCT ( 'Web Model 19627_19627', 'Web Model 19627_19627', '', ( #106 ) ) ;
#60 = SHAPE_DEFINITION_REPRESENTATION ( #49, #169 ) ;
#61 = LINE ( 'NONE', #115, #19 ) ;
#62 = ORIENTED_EDGE ( 'NONE', *, *, #122, .F. ) ;
#63 = CALENDAR_DATE ( 2022, 11, 1 ) ;
#64 = DIRECTION ( 'NONE',  ( -0.000000000000000000, -0.000000000000000000, -1.000000000000000000 ) ) ;
#65 = PERSON_AND_ORGANIZATION_ROLE ( 'classification_officer' ) ;
#66 = PLANE ( 'NONE',  #16 ) ;
#67 = CC_DESIGN_APPROVAL ( #25, ( #128 ) ) ;
#68 = VERTEX_POINT ( 'NONE', #141 ) ;
#69 = VERTEX_POINT ( 'NONE', #77 ) ;
#70 = APPROVAL_PERSON_ORGANIZATION ( #26, #27, #156 ) ;
#71 = DIRECTION ( 'NONE',  ( -1.000000000000000000, 0.000000000000000000, 0.000000000000000000 ) ) ;
#72 = CC_DESIGN_PERSON_AND_ORGANIZATION_ASSIGNMENT ( #143, #37, ( #128 ) ) ;
#73 = SECURITY_CLASSIFICATION ( '', '', #75 ) ;
#74 = LOCAL_TIME ( 16, 31, 52.00000000000000000, #5 ) ;
#75 = SECURITY_CLASSIFICATION_LEVEL ( 'unclassified' ) ;
#76 = DIRECTION ( 'NONE',  ( 1.000000000000000000, 0.000000000000000000, 0.000000000000000000 ) ) ;
#77 = CARTESIAN_POINT ( 'NONE',  ( -12.69999999999999929, 0.000000000000000000, 1.520000000000000018 ) ) ;
#78 = APPLICATION_PROTOCOL_DEFINITION ( 'international standard', 'config_control_design', 1994, #36 ) ;
#79 = CYLINDRICAL_SURFACE ( 'NONE', #29, 12.69999999999999929 ) ;
#80 = CARTESIAN_POINT ( 'NONE',  ( 0.000000000000000000, 0.000000000000000000, 1.520000000000000018 ) ) ;
#81 = COORDINATED_UNIVERSAL_TIME_OFFSET ( 5, 0, .BEHIND. ) ;
#82 = CARTESIAN_POINT ( 'NONE',  ( 12.69999999999999929, 1.555301434917138433E-15, 1.520000000000000018 ) ) ;
#83 = APPROVAL_ROLE ( '' ) ;
#84 = PERSON_AND_ORGANIZATION ( #172, #51 ) ;
#85 = CIRCLE ( 'NONE', #97, 12.69999999999999929 ) ;
#86 = EDGE_CURVE ( 'NONE', #69, #12, #85, .T. ) ;
#87 = LOCAL_TIME ( 16, 31, 52.00000000000000000, #146 ) ;
#88 = PRODUCT_RELATED_PRODUCT_CATEGORY ( 'detail', '', ( #59 ) ) ;
#89 = EDGE_LOOP ( 'NONE', ( #126, #102 ) ) ;
#90 = CC_DESIGN_PERSON_AND_ORGANIZATION_ASSIGNMENT ( #31, #96, ( #32 ) ) ;
#91 = CIRCLE ( 'NONE', #13, 12.69999999999999929 ) ;
#92 = CARTESIAN_POINT ( 'NONE',  ( 0.000000000000000000, 0.000000000000000000, 1.520000000000000018 ) ) ;
#93 = DATE_TIME_ROLE ( 'classification_date' ) ;
#94 = DIRECTION ( 'NONE',  ( 1.000000000000000000, 0.000000000000000000, 0.000000000000000000 ) ) ;
#95 = DIRECTION ( 'NONE',  ( 0.000000000000000000, 0.000000000000000000, 1.000000000000000000 ) ) ;
#96 = PERSON_AND_ORGANIZATION_ROLE ( 'design_supplier' ) ;
#97 = AXIS2_PLACEMENT_3D ( 'NONE', #80, #114, #76 ) ;
#98 = PERSON_AND_ORGANIZATION ( #172, #51 ) ;
#99 = ORIENTED_EDGE ( 'NONE', *, *, #38, .F. ) ;
#100 = ORIENTED_EDGE ( 'NONE', *, *, #8, .T. ) ;
#101 = ORIENTED_EDGE ( 'NONE', *, *, #38, .T. ) ;
#102 = ORIENTED_EDGE ( 'NONE', *, *, #122, .T. ) ;
#103 = DIRECTION ( 'NONE',  ( 0.000000000000000000, 0.000000000000000000, 1.000000000000000000 ) ) ;
#104 = CARTESIAN_POINT ( 'NONE',  ( 0.000000000000000000, 0.000000000000000000, 0.000000000000000000 ) ) ;
#105 = COORDINATED_UNIVERSAL_TIME_OFFSET ( 5, 0, .BEHIND. ) ;
#106 = MECHANICAL_CONTEXT ( 'NONE', #36, 'mechanical' ) ;
#107 = CC_DESIGN_PERSON_AND_ORGANIZATION_ASSIGNMENT ( #130, #65, ( #73 ) ) ;
#108 = APPROVAL_PERSON_ORGANIZATION ( #134, #25, #132 ) ;
#109 = DATE_AND_TIME ( #63, #110 ) ;
#110 = LOCAL_TIME ( 16, 31, 52.00000000000000000, #136 ) ;
#111 = CIRCLE ( 'NONE', #47, 12.69999999999999929 ) ;
#112 = PERSON_AND_ORGANIZATION ( #172, #51 ) ;
#113 = DIRECTION ( 'NONE',  ( 1.000000000000000000, 0.000000000000000000, 0.000000000000000000 ) ) ;
#114 = DIRECTION ( 'NONE',  ( 0.000000000000000000, 0.000000000000000000, 1.000000000000000000 ) ) ;
#115 = CARTESIAN_POINT ( 'NONE',  ( 12.69999999999999929, 1.555301434917138433E-15, 1.520000000000000018 ) ) ;
#116 = CC_DESIGN_DATE_AND_TIME_ASSIGNMENT ( #10, #93, ( #73 ) ) ;
#117 = ORIENTED_EDGE ( 'NONE', *, *, #170, .T. ) ;
#118 =( LENGTH_UNIT ( ) NAMED_UNIT ( * ) SI_UNIT ( .MILLI., .METRE. ) );
#119 = APPROVAL_STATUS ( 'not_yet_approved' ) ;
#120 = AXIS2_PLACEMENT_3D ( 'NONE', #53, #33, #7 ) ;
#121 = CALENDAR_DATE ( 2022, 11, 1 ) ;
#122 = EDGE_CURVE ( 'NONE', #12, #69, #111, .T. ) ;
#123 = CARTESIAN_POINT ( 'NONE',  ( 0.000000000000000000, 0.000000000000000000, 0.000000000000000000 ) ) ;
#124 = CYLINDRICAL_SURFACE ( 'NONE', #120, 12.69999999999999929 ) ;
#125 = ADVANCED_FACE ( 'NONE', ( #46 ), #124, .T. ) ;
#126 = ORIENTED_EDGE ( 'NONE', *, *, #86, .T. ) ;
#127 = DIRECTION ( 'NONE',  ( 1.000000000000000000, 0.000000000000000000, 0.000000000000000000 ) ) ;
#128 = PRODUCT_DEFINITION ( 'UNKNOWN', '', #32, #56 ) ;
#129 = VERTEX_POINT ( 'NONE', #50 ) ;
#130 = PERSON_AND_ORGANIZATION ( #172, #51 ) ;
#131 = DIRECTION ( 'NONE',  ( 0.000000000000000000, 0.000000000000000000, 1.000000000000000000 ) ) ;
#132 = APPROVAL_ROLE ( '' ) ;
#133 = DIRECTION ( 'NONE',  ( 0.000000000000000000, 0.000000000000000000, 1.000000000000000000 ) ) ;
#134 = PERSON_AND_ORGANIZATION ( #172, #51 ) ;
#135 = FACE_OUTER_BOUND ( 'NONE', #174, .T. ) ;
#136 = COORDINATED_UNIVERSAL_TIME_OFFSET ( 5, 0, .BEHIND. ) ;
#137 = ORIENTED_EDGE ( 'NONE', *, *, #149, .T. ) ;
#138 = AXIS2_PLACEMENT_3D ( 'NONE', #153, #18, #39 ) ;
#139 = CC_DESIGN_PERSON_AND_ORGANIZATION_ASSIGNMENT ( #112, #142, ( #59 ) ) ;
#140 = APPROVAL_DATE_TIME ( #109, #27 ) ;
#141 = CARTESIAN_POINT ( 'NONE',  ( 12.69999999999999929, 1.555301434917138433E-15, 0.000000000000000000 ) ) ;
#142 = PERSON_AND_ORGANIZATION_ROLE ( 'design_owner' ) ;
#143 = PERSON_AND_ORGANIZATION ( #172, #51 ) ;
#144 = PLANE ( 'NONE',  #138 ) ;
#145 = APPROVAL_STATUS ( 'not_yet_approved' ) ;
#146 = COORDINATED_UNIVERSAL_TIME_OFFSET ( 5, 0, .BEHIND. ) ;
#147 = APPROVAL_DATE_TIME ( #173, #157 ) ;
#148 = CALENDAR_DATE ( 2022, 11, 1 ) ;
#149 = EDGE_CURVE ( 'NONE', #69, #129, #150, .T. ) ;
#150 = LINE ( 'NONE', #151, #158 ) ;
#151 = CARTESIAN_POINT ( 'NONE',  ( -12.69999999999999929, 0.000000000000000000, 1.520000000000000018 ) ) ;
#152 = DATE_AND_TIME ( #48, #74 ) ;
#153 = CARTESIAN_POINT ( 'NONE',  ( 0.000000000000000000, 0.000000000000000000, 0.000000000000000000 ) ) ;
#154 = EDGE_LOOP ( 'NONE', ( #99, #24, #137, #100 ) ) ;
#155 = AXIS2_PLACEMENT_3D ( 'NONE', #123, #175, #127 ) ;
#156 = APPROVAL_ROLE ( '' ) ;
#157 = APPROVAL ( #4, 'UNSPECIFIED' ) ;
#158 = VECTOR ( 'NONE', #64, 1000.000000000000000 ) ;
#159 = FACE_OUTER_BOUND ( 'NONE', #154, .T. ) ;
#160 = CLOSED_SHELL ( 'NONE', ( #125, #42, #52, #58 ) ) ;
#161 = DATE_AND_TIME ( #148, #11 ) ;
#162 = ORIENTED_EDGE ( 'NONE', *, *, #170, .F. ) ;
#163 =( GEOMETRIC_REPRESENTATION_CONTEXT ( 3 ) GLOBAL_UNCERTAINTY_ASSIGNED_CONTEXT ( ( #43 ) ) GLOBAL_UNIT_ASSIGNED_CONTEXT ( ( #118, #23, #3 ) ) REPRESENTATION_CONTEXT ( 'NONE', 'WORKASPACE' ) );
#164 = ORIENTED_EDGE ( 'NONE', *, *, #8, .F. ) ;
#165 = APPLICATION_PROTOCOL_DEFINITION ( 'international standard', 'config_control_design', 1994, #21 ) ;
#166 = APPROVAL_DATE_TIME ( #161, #25 ) ;
#167 = CARTESIAN_POINT ( 'NONE',  ( 0.000000000000000000, 0.000000000000000000, 0.000000000000000000 ) ) ;
#168 = PERSON_AND_ORGANIZATION_ROLE ( 'creator' ) ;
#169 = ADVANCED_BREP_SHAPE_REPRESENTATION ( 'Web Model 19627_19627', ( #22, #57 ), #163 ) ;
#170 = EDGE_CURVE ( 'NONE', #68, #129, #91, .T. ) ;
#171 = CC_DESIGN_APPROVAL ( #27, ( #32 ) ) ;
#172 = PERSON ( 'UNSPECIFIED', 'UNSPECIFIED', 'UNSPECIFIED', ('UNSPECIFIED'), ('UNSPECIFIED'), ('UNSPECIFIED') ) ;
#173 = DATE_AND_TIME ( #40, #87 ) ;
#174 = EDGE_LOOP ( 'NONE', ( #164, #162 ) ) ;
#175 = DIRECTION ( 'NONE',  ( 0.000000000000000000, 0.000000000000000000, 1.000000000000000000 ) ) ;
ENDSEC;
END-ISO-10303-21;
