ISO-10303-21;
HEADER;
FILE_DESCRIPTION (( 'STEP AP214' ),
    '1' );
FILE_NAME ('4826-E0W.STEP',
    '2009-12-21T17:05:24',
    ( ' ' ),
    ( ' ' ),
    'SwSTEP 2.0',
    'SolidWorks 2009',
    '' );
FILE_SCHEMA (( 'AUTOMOTIVE_DESIGN' ));
ENDSEC;

DATA;
#1 = EDGE_CURVE ( 'NONE', #98, #59, #143, .T. ) ;
#2 = ORIENTED_EDGE ( 'NONE', *, *, #1, .T. ) ;
#3 = ORIENTED_EDGE ( 'NONE', *, *, #1, .F. ) ;
#4 = CLOSED_SHELL ( 'NONE', ( #50, #55, #97, #76, #90, #17 ) ) ;
#5 = STYLED_ITEM ( 'NONE', ( #14 ), #50 ) ;
#6 = ORIENTED_EDGE ( 'NONE', *, *, #74, .F. ) ;
#7 = EDGE_LOOP ( 'NONE', ( #8, #3, #6, #15 ) ) ;
#8 = ORIENTED_EDGE ( 'NONE', *, *, #65, .F. ) ;
#9 = SURFACE_STYLE_USAGE ( .BOTH. , #18 ) ;
#10 =( LENGTH_UNIT ( ) NAMED_UNIT ( * ) SI_UNIT ( .MILLI., .METRE. ) );
#11 =( NAMED_UNIT ( * ) PLANE_ANGLE_UNIT ( ) SI_UNIT ( $, .RADIAN. ) );
#12 = PRESENTATION_LAYER_ASSIGNMENT (  '', '', ( #5 ) ) ;
#13 = ORIENTED_EDGE ( 'NONE', *, *, #19, .F. ) ;
#14 = PRESENTATION_STYLE_ASSIGNMENT (( #9 ) ) ;
#15 = ORIENTED_EDGE ( 'NONE', *, *, #81, .T. ) ;
#16 = MECHANICAL_DESIGN_GEOMETRIC_PRESENTATION_REPRESENTATION (  '', ( #5 ), #37 ) ;
#17 = ADVANCED_FACE ( 'NONE', ( #122 ), #123, .F. ) ;
#18 = SURFACE_SIDE_STYLE ('',( #130 ) ) ;
#19 = EDGE_CURVE ( 'NONE', #87, #80, #138, .T. ) ;
#20 = ORIENTED_EDGE ( 'NONE', *, *, #86, .F. ) ;
#21 = STYLED_ITEM ( 'NONE', ( #32 ), #76 ) ;
#22 = DIRECTION ( 'NONE',  ( 1.000000000000000000, 0.0000000000000000000, 0.0000000000000000000 ) ) ;
#23 = DIRECTION ( 'NONE',  ( -0.0000000000000000000, -0.0000000000000000000, 1.000000000000000000 ) ) ;
#24 =( NAMED_UNIT ( * ) PLANE_ANGLE_UNIT ( ) SI_UNIT ( $, .RADIAN. ) );
#25 = CARTESIAN_POINT ( 'NONE',  ( 0.0000000000000000000, 0.0000000000000000000, -4.035123887899057800 ) ) ;
#26 =( LENGTH_UNIT ( ) NAMED_UNIT ( * ) SI_UNIT ( .MILLI., .METRE. ) );
#27 = AXIS2_PLACEMENT_3D ( 'NONE', #25, #23, #22 ) ;
#28 =( LENGTH_UNIT ( ) NAMED_UNIT ( * ) SI_UNIT ( .MILLI., .METRE. ) );
#29 = MECHANICAL_DESIGN_GEOMETRIC_PRESENTATION_REPRESENTATION (  '', ( #21 ), #38 ) ;
#30 = CIRCLE ( 'NONE', #27, 25.39999999999999900 ) ;
#31 =( NAMED_UNIT ( * ) SI_UNIT ( $, .STERADIAN. ) SOLID_ANGLE_UNIT ( ) );
#32 = PRESENTATION_STYLE_ASSIGNMENT (( #200 ) ) ;
#33 = PRESENTATION_LAYER_ASSIGNMENT (  '', '', ( #21 ) ) ;
#34 = UNCERTAINTY_MEASURE_WITH_UNIT (LENGTH_MEASURE( 1.000000000000000100E-005 ), #28, 'distance_accuracy_value', 'NONE');
#35 =( GEOMETRIC_REPRESENTATION_CONTEXT ( 3 ) GLOBAL_UNCERTAINTY_ASSIGNED_CONTEXT ( ( #41 ) ) GLOBAL_UNIT_ASSIGNED_CONTEXT ( ( #26, #42, #39 ) ) REPRESENTATION_CONTEXT ( 'NONE', 'WORKASPACE' ) );
#36 =( NAMED_UNIT ( * ) SI_UNIT ( $, .STERADIAN. ) SOLID_ANGLE_UNIT ( ) );
#37 =( GEOMETRIC_REPRESENTATION_CONTEXT ( 3 ) GLOBAL_UNCERTAINTY_ASSIGNED_CONTEXT ( ( #40 ) ) GLOBAL_UNIT_ASSIGNED_CONTEXT ( ( #10, #11, #31 ) ) REPRESENTATION_CONTEXT ( 'NONE', 'WORKASPACE' ) );
#38 =( GEOMETRIC_REPRESENTATION_CONTEXT ( 3 ) GLOBAL_UNCERTAINTY_ASSIGNED_CONTEXT ( ( #34 ) ) GLOBAL_UNIT_ASSIGNED_CONTEXT ( ( #28, #24, #36 ) ) REPRESENTATION_CONTEXT ( 'NONE', 'WORKASPACE' ) );
#39 =( NAMED_UNIT ( * ) SI_UNIT ( $, .STERADIAN. ) SOLID_ANGLE_UNIT ( ) );
#40 = UNCERTAINTY_MEASURE_WITH_UNIT (LENGTH_MEASURE( 1.000000000000000100E-005 ), #10, 'distance_accuracy_value', 'NONE');
#41 = UNCERTAINTY_MEASURE_WITH_UNIT (LENGTH_MEASURE( 1.000000000000000100E-005 ), #26, 'distance_accuracy_value', 'NONE');
#42 =( NAMED_UNIT ( * ) PLANE_ANGLE_UNIT ( ) SI_UNIT ( $, .RADIAN. ) );
#43 = CIRCLE ( 'NONE', #45, 25.39999999999999900 ) ;
#44 = DIRECTION ( 'NONE',  ( 1.000000000000000000, 0.0000000000000000000, 0.0000000000000000000 ) ) ;
#45 = AXIS2_PLACEMENT_3D ( 'NONE', #47, #46, #44 ) ;
#46 = DIRECTION ( 'NONE',  ( -0.0000000000000000000, -0.0000000000000000000, 1.000000000000000000 ) ) ;
#47 = CARTESIAN_POINT ( 'NONE',  ( 0.0000000000000000000, 0.0000000000000000000, -1.119329701789838500 ) ) ;
#48 = ORIENTED_EDGE ( 'NONE', *, *, #65, .T. ) ;
#49 = ORIENTED_EDGE ( 'NONE', *, *, #71, .F. ) ;
#50 = ADVANCED_FACE ( 'NONE', ( #118 ), #107, .F. ) ;
#51 = ORIENTED_EDGE ( 'NONE', *, *, #86, .T. ) ;
#52 = ORIENTED_EDGE ( 'NONE', *, *, #53, .F. ) ;
#53 = EDGE_CURVE ( 'NONE', #101, #79, #148, .T. ) ;
#54 = EDGE_LOOP ( 'NONE', ( #88, #63, #60, #92 ) ) ;
#55 = ADVANCED_FACE ( 'NONE', ( #178 ), #175, .T. ) ;
#56 = EDGE_CURVE ( 'NONE', #75, #89, #156, .T. ) ;
#57 = EDGE_CURVE ( 'NONE', #101, #99, #170, .T. ) ;
#58 = EDGE_CURVE ( 'NONE', #80, #101, #184, .T. ) ;
#59 = VERTEX_POINT ( 'NONE', #188 ) ;
#60 = ORIENTED_EDGE ( 'NONE', *, *, #58, .T. ) ;
#61 = ORIENTED_EDGE ( 'NONE', *, *, #96, .T. ) ;
#62 = ORIENTED_EDGE ( 'NONE', *, *, #71, .T. ) ;
#63 = ORIENTED_EDGE ( 'NONE', *, *, #19, .T. ) ;
#64 = EDGE_CURVE ( 'NONE', #98, #99, #199, .T. ) ;
#65 = EDGE_CURVE ( 'NONE', #59, #67, #193, .T. ) ;
#66 = ORIENTED_EDGE ( 'NONE', *, *, #81, .F. ) ;
#67 = VERTEX_POINT ( 'NONE', #194 ) ;
#68 = ORIENTED_EDGE ( 'NONE', *, *, #96, .F. ) ;
#69 = EDGE_LOOP ( 'NONE', ( #94, #51, #77, #52 ) ) ;
#70 = ORIENTED_EDGE ( 'NONE', *, *, #74, .T. ) ;
#71 = EDGE_CURVE ( 'NONE', #59, #75, #30, .T. ) ;
#72 = ORIENTED_EDGE ( 'NONE', *, *, #57, .F. ) ;
#73 = EDGE_LOOP ( 'NONE', ( #83, #70, #100, #72, #95, #68 ) ) ;
#74 = EDGE_CURVE ( 'NONE', #89, #98, #206, .T. ) ;
#75 = VERTEX_POINT ( 'NONE', #211 ) ;
#76 = ADVANCED_FACE ( 'NONE', ( #210 ), #111, .T. ) ;
#77 = ORIENTED_EDGE ( 'NONE', *, *, #78, .T. ) ;
#78 = EDGE_CURVE ( 'NONE', #87, #79, #224, .T. ) ;
#79 = VERTEX_POINT ( 'NONE', #217 ) ;
#80 = VERTEX_POINT ( 'NONE', #214 ) ;
#81 = EDGE_CURVE ( 'NONE', #89, #67, #223, .T. ) ;
#82 = ORIENTED_EDGE ( 'NONE', *, *, #56, .F. ) ;
#83 = ORIENTED_EDGE ( 'NONE', *, *, #56, .T. ) ;
#84 = EDGE_LOOP ( 'NONE', ( #49, #48, #66, #82 ) ) ;
#85 = MANIFOLD_SOLID_BREP ( 'NONE', #4 ) ;
#86 = EDGE_CURVE ( 'NONE', #99, #87, #43, .T. ) ;
#87 = VERTEX_POINT ( 'NONE', #285 ) ;
#88 = ORIENTED_EDGE ( 'NONE', *, *, #78, .F. ) ;
#89 = VERTEX_POINT ( 'NONE', #287 ) ;
#90 = ADVANCED_FACE ( 'NONE', ( #286 ), #311, .T. ) ;
#91 = ORIENTED_EDGE ( 'NONE', *, *, #64, .F. ) ;
#92 = ORIENTED_EDGE ( 'NONE', *, *, #53, .T. ) ;
#93 = EDGE_LOOP ( 'NONE', ( #91, #2, #62, #61, #13, #20 ) ) ;
#94 = ORIENTED_EDGE ( 'NONE', *, *, #57, .T. ) ;
#95 = ORIENTED_EDGE ( 'NONE', *, *, #58, .F. ) ;
#96 = EDGE_CURVE ( 'NONE', #75, #80, #305, .T. ) ;
#97 = ADVANCED_FACE ( 'NONE', ( #301 ), #281, .T. ) ;
#98 = VERTEX_POINT ( 'NONE', #276 ) ;
#99 = VERTEX_POINT ( 'NONE', #275 ) ;
#100 = ORIENTED_EDGE ( 'NONE', *, *, #64, .T. ) ;
#101 = VERTEX_POINT ( 'NONE', #274 ) ;
#102 = DIRECTION ( 'NONE',  ( 0.0000000000000000000, 1.000000000000000000, 0.0000000000000000000 ) ) ;
#103 = DIRECTION ( 'NONE',  ( -1.000000000000000000, 0.0000000000000000000, 0.0000000000000000000 ) ) ;
#104 = AXIS2_PLACEMENT_3D ( 'NONE', #106, #108, #105 ) ;
#105 = DIRECTION ( 'NONE',  ( 0.0000000000000000000, 1.000000000000000000, 0.0000000000000000000 ) ) ;
#106 = CARTESIAN_POINT ( 'NONE',  ( 0.0000000000000000000, 0.0000000000000000000, -61.12487611210093500 ) ) ;
#107 = SPHERICAL_SURFACE ( 'NONE', #109, 171.5999999999999900 ) ;
#108 = DIRECTION ( 'NONE',  ( -1.000000000000000000, 0.0000000000000000000, 0.0000000000000000000 ) ) ;
#109 = AXIS2_PLACEMENT_3D ( 'NONE', #110, #103, #102 ) ;
#110 = CARTESIAN_POINT ( 'NONE',  ( 0.0000000000000000000, 0.0000000000000000000, -173.7448761121009700 ) ) ;
#111 = SPHERICAL_SURFACE ( 'NONE', #104, 65.15999999999999700 ) ;
#112 = PRESENTATION_STYLE_ASSIGNMENT (( #113 ) ) ;
#113 = SURFACE_STYLE_USAGE ( .BOTH. , #141 ) ;
#114 =( GEOMETRIC_REPRESENTATION_CONTEXT ( 3 ) GLOBAL_UNCERTAINTY_ASSIGNED_CONTEXT ( ( #116 ) ) GLOBAL_UNIT_ASSIGNED_CONTEXT ( ( #125, #124, #120 ) ) REPRESENTATION_CONTEXT ( 'NONE', 'WORKASPACE' ) );
#115 = CARTESIAN_POINT ( 'NONE',  ( 0.0000000000000000000, 0.0000000000000000000, -4.035123887899057800 ) ) ;
#116 = UNCERTAINTY_MEASURE_WITH_UNIT (LENGTH_MEASURE( 1.000000000000000100E-005 ), #125, 'distance_accuracy_value', 'NONE');
#117 = DIRECTION ( 'NONE',  ( -0.0000000000000000000, -0.0000000000000000000, 1.000000000000000000 ) ) ;
#118 = FACE_OUTER_BOUND ( 'NONE', #84, .T. ) ;
#119 = DIRECTION ( 'NONE',  ( 0.0000000000000000000, 1.000000000000000000, 0.0000000000000000000 ) ) ;
#120 =( NAMED_UNIT ( * ) SI_UNIT ( $, .STERADIAN. ) SOLID_ANGLE_UNIT ( ) );
#121 = AXIS2_PLACEMENT_3D ( 'NONE', #115, #117, #128 ) ;
#122 = FACE_OUTER_BOUND ( 'NONE', #7, .T. ) ;
#123 = SPHERICAL_SURFACE ( 'NONE', #146, 171.5999999999999900 ) ;
#124 =( NAMED_UNIT ( * ) PLANE_ANGLE_UNIT ( ) SI_UNIT ( $, .RADIAN. ) );
#125 =( LENGTH_UNIT ( ) NAMED_UNIT ( * ) SI_UNIT ( .MILLI., .METRE. ) );
#126 = MECHANICAL_DESIGN_GEOMETRIC_PRESENTATION_REPRESENTATION (  '', ( #129 ), #114 ) ;
#127 = COLOUR_RGB ( '',0.9568627450980391500, 0.9490196078431372100, 0.9607843137254902200 ) ;
#128 = DIRECTION ( 'NONE',  ( 1.000000000000000000, 0.0000000000000000000, 0.0000000000000000000 ) ) ;
#129 = STYLED_ITEM ( 'NONE', ( #112 ), #17 ) ;
#130 = SURFACE_STYLE_FILL_AREA ( #131 ) ;
#131 = FILL_AREA_STYLE ('',( #132 ) ) ;
#132 = FILL_AREA_STYLE_COLOUR ( '', #133 ) ;
#133 = COLOUR_RGB ( '',0.9568627450980391500, 0.9490196078431372100, 0.9607843137254902200 ) ;
#134 = DIRECTION ( 'NONE',  ( 1.000000000000000000, 0.0000000000000000000, 0.0000000000000000000 ) ) ;
#135 = DIRECTION ( 'NONE',  ( -0.0000000000000000000, -0.0000000000000000000, 1.000000000000000000 ) ) ;
#136 = CARTESIAN_POINT ( 'NONE',  ( 0.0000000000000000000, 0.0000000000000000000, -1.119329701789838500 ) ) ;
#137 = AXIS2_PLACEMENT_3D ( 'NONE', #136, #135, #134 ) ;
#138 = CIRCLE ( 'NONE', #137, 25.39999999999999900 ) ;
#139 = PRESENTATION_LAYER_ASSIGNMENT (  '', '', ( #129 ) ) ;
#140 = FILL_AREA_STYLE ('',( #147 ) ) ;
#141 = SURFACE_SIDE_STYLE ('',( #142 ) ) ;
#142 = SURFACE_STYLE_FILL_AREA ( #140 ) ;
#143 = CIRCLE ( 'NONE', #121, 25.39999999999999900 ) ;
#144 = DIRECTION ( 'NONE',  ( -1.000000000000000000, 0.0000000000000000000, 0.0000000000000000000 ) ) ;
#145 = CARTESIAN_POINT ( 'NONE',  ( 0.0000000000000000000, 0.0000000000000000000, -173.7448761121009700 ) ) ;
#146 = AXIS2_PLACEMENT_3D ( 'NONE', #145, #144, #119 ) ;
#147 = FILL_AREA_STYLE_COLOUR ( '', #127 ) ;
#148 = CIRCLE ( 'NONE', #152, 65.15999999999999700 ) ;
#149 = FILL_AREA_STYLE ('',( #177 ) ) ;
#150 = DIRECTION ( 'NONE',  ( 0.0000000000000000000, 0.0000000000000000000, -1.000000000000000000 ) ) ;
#151 = DIRECTION ( 'NONE',  ( 1.000000000000000000, 0.0000000000000000000, 0.0000000000000000000 ) ) ;
#152 = AXIS2_PLACEMENT_3D ( 'NONE', #161, #151, #150 ) ;
#153 = DIRECTION ( 'NONE',  ( 1.000000000000000000, 0.0000000000000000000, 0.0000000000000000000 ) ) ;
#154 = DIRECTION ( 'NONE',  ( -0.0000000000000000000, -0.0000000000000000000, 1.000000000000000000 ) ) ;
#155 = AXIS2_PLACEMENT_3D ( 'NONE', #179, #154, #153 ) ;
#156 = CIRCLE ( 'NONE', #155, 25.39999999999999900 ) ;
#157 = MECHANICAL_DESIGN_GEOMETRIC_PRESENTATION_REPRESENTATION (  '', ( #159 ), #176 ) ;
#158 = PRESENTATION_LAYER_ASSIGNMENT (  '', '', ( #159 ) ) ;
#159 = STYLED_ITEM ( 'NONE', ( #163 ), #55 ) ;
#160 =( NAMED_UNIT ( * ) PLANE_ANGLE_UNIT ( ) SI_UNIT ( $, .RADIAN. ) );
#161 = CARTESIAN_POINT ( 'NONE',  ( 0.0000000000000000000, 0.0000000000000000000, -61.12487611210093500 ) ) ;
#162 =( LENGTH_UNIT ( ) NAMED_UNIT ( * ) SI_UNIT ( .MILLI., .METRE. ) );
#163 = PRESENTATION_STYLE_ASSIGNMENT (( #164 ) ) ;
#164 = SURFACE_STYLE_USAGE ( .BOTH. , #165 ) ;
#165 = SURFACE_SIDE_STYLE ('',( #171 ) ) ;
#166 = DIRECTION ( 'NONE',  ( 1.000000000000000000, 0.0000000000000000000, 0.0000000000000000000 ) ) ;
#167 = DIRECTION ( 'NONE',  ( -0.0000000000000000000, -0.0000000000000000000, 1.000000000000000000 ) ) ;
#168 = CARTESIAN_POINT ( 'NONE',  ( 0.0000000000000000000, 0.0000000000000000000, -1.119329701789838500 ) ) ;
#169 = AXIS2_PLACEMENT_3D ( 'NONE', #168, #167, #166 ) ;
#170 = CIRCLE ( 'NONE', #169, 25.39999999999999900 ) ;
#171 = SURFACE_STYLE_FILL_AREA ( #149 ) ;
#172 = COLOUR_RGB ( '',0.9568627450980391500, 0.9490196078431372100, 0.9607843137254902200 ) ;
#173 = CARTESIAN_POINT ( 'NONE',  ( 0.0000000000000000000, 0.0000000000000000000, 9.850227642740110300 ) ) ;
#174 = AXIS2_PLACEMENT_3D ( 'NONE', #173, #181, #180 ) ;
#175 = CYLINDRICAL_SURFACE ( 'NONE', #174, 25.39999999999999900 ) ;
#176 =( GEOMETRIC_REPRESENTATION_CONTEXT ( 3 ) GLOBAL_UNCERTAINTY_ASSIGNED_CONTEXT ( ( #182 ) ) GLOBAL_UNIT_ASSIGNED_CONTEXT ( ( #162, #160, #183 ) ) REPRESENTATION_CONTEXT ( 'NONE', 'WORKASPACE' ) );
#177 = FILL_AREA_STYLE_COLOUR ( '', #172 ) ;
#178 = FACE_OUTER_BOUND ( 'NONE', #73, .T. ) ;
#179 = CARTESIAN_POINT ( 'NONE',  ( 0.0000000000000000000, 0.0000000000000000000, -4.035123887899057800 ) ) ;
#180 = DIRECTION ( 'NONE',  ( 1.000000000000000000, 0.0000000000000000000, 0.0000000000000000000 ) ) ;
#181 = DIRECTION ( 'NONE',  ( -0.0000000000000000000, -0.0000000000000000000, 1.000000000000000000 ) ) ;
#182 = UNCERTAINTY_MEASURE_WITH_UNIT (LENGTH_MEASURE( 1.000000000000000100E-005 ), #162, 'distance_accuracy_value', 'NONE');
#183 =( NAMED_UNIT ( * ) SI_UNIT ( $, .STERADIAN. ) SOLID_ANGLE_UNIT ( ) );
#184 = CIRCLE ( 'NONE', #196, 25.39999999999999900 ) ;
#185 = DIRECTION ( 'NONE',  ( -0.0000000000000000000, -0.0000000000000000000, 1.000000000000000000 ) ) ;
#186 = VECTOR ( 'NONE', #185, 1000.000000000000000 ) ;
#187 = DIRECTION ( 'NONE',  ( -0.0000000000000000000, -0.0000000000000000000, 1.000000000000000000 ) ) ;
#188 = CARTESIAN_POINT ( 'NONE',  ( -3.110500138708837000E-015, -25.39999999999998800, -4.035123887899059600 ) ) ;
#189 = DIRECTION ( 'NONE',  ( 1.000000000000000000, 0.0000000000000000000, 0.0000000000000000000 ) ) ;
#190 = DIRECTION ( 'NONE',  ( -1.224606353822377300E-016, -1.000000000000000000, 0.0000000000000000000 ) ) ;
#191 = DIRECTION ( 'NONE',  ( -1.000000000000000000, 1.224606353822377300E-016, 0.0000000000000000000 ) ) ;
#192 = AXIS2_PLACEMENT_3D ( 'NONE', #197, #191, #190 ) ;
#193 = CIRCLE ( 'NONE', #192, 171.5999999999999900 ) ;
#194 = CARTESIAN_POINT ( 'NONE',  ( 0.0000000000000000000, 1.050712251579599800E-014, -2.144876112100957400 ) ) ;
#195 = CARTESIAN_POINT ( 'NONE',  ( 0.0000000000000000000, 0.0000000000000000000, -1.119329701789838500 ) ) ;
#196 = AXIS2_PLACEMENT_3D ( 'NONE', #195, #187, #189 ) ;
#197 = CARTESIAN_POINT ( 'NONE',  ( 0.0000000000000000000, 0.0000000000000000000, -173.7448761121009700 ) ) ;
#198 = CARTESIAN_POINT ( 'NONE',  ( -25.39999999999999900, 3.110500138708838200E-015, 9.850227642740110300 ) ) ;
#199 = LINE ( 'NONE', #198, #186 ) ;
#200 = SURFACE_STYLE_USAGE ( .BOTH. , #201 ) ;
#201 = SURFACE_SIDE_STYLE ('',( #202 ) ) ;
#202 = SURFACE_STYLE_FILL_AREA ( #203 ) ;
#203 = FILL_AREA_STYLE ('',( #207 ) ) ;
#204 = COLOUR_RGB ( '',0.9568627450980391500, 0.9490196078431372100, 0.9607843137254902200 ) ;
#205 = DIRECTION ( 'NONE',  ( -0.0000000000000000000, -0.0000000000000000000, 1.000000000000000000 ) ) ;
#206 = CIRCLE ( 'NONE', #209, 25.39999999999999900 ) ;
#207 = FILL_AREA_STYLE_COLOUR ( '', #204 ) ;
#208 = DIRECTION ( 'NONE',  ( 1.000000000000000000, 0.0000000000000000000, 0.0000000000000000000 ) ) ;
#209 = AXIS2_PLACEMENT_3D ( 'NONE', #212, #205, #208 ) ;
#210 = FACE_OUTER_BOUND ( 'NONE', #54, .T. ) ;
#211 = CARTESIAN_POINT ( 'NONE',  ( 25.39999999999999900, 0.0000000000000000000, -4.035123887899057800 ) ) ;
#212 = CARTESIAN_POINT ( 'NONE',  ( 0.0000000000000000000, 0.0000000000000000000, -4.035123887899057800 ) ) ;
#213 = AXIS2_PLACEMENT_3D ( 'NONE', #218, #216, #215 ) ;
#214 = CARTESIAN_POINT ( 'NONE',  ( 25.39999999999999900, 0.0000000000000000000, -1.119329701789838500 ) ) ;
#215 = DIRECTION ( 'NONE',  ( -1.224606353822377300E-016, -1.000000000000000000, 0.0000000000000000000 ) ) ;
#216 = DIRECTION ( 'NONE',  ( -1.000000000000000000, 1.224606353822377300E-016, 0.0000000000000000000 ) ) ;
#217 = CARTESIAN_POINT ( 'NONE',  ( 0.0000000000000000000, 3.989767500753305200E-015, 4.035123887899061400 ) ) ;
#218 = CARTESIAN_POINT ( 'NONE',  ( 0.0000000000000000000, 0.0000000000000000000, -61.12487611210093500 ) ) ;
#219 = DIRECTION ( 'NONE',  ( 0.0000000000000000000, 0.0000000000000000000, -1.000000000000000000 ) ) ;
#220 = DIRECTION ( 'NONE',  ( 1.000000000000000000, -0.0000000000000000000, 0.0000000000000000000 ) ) ;
#221 = CARTESIAN_POINT ( 'NONE',  ( 0.0000000000000000000, 0.0000000000000000000, -173.7448761121009700 ) ) ;
#222 = AXIS2_PLACEMENT_3D ( 'NONE', #221, #220, #219 ) ;
#223 = CIRCLE ( 'NONE', #222, 171.5999999999999900 ) ;
#224 = CIRCLE ( 'NONE', #213, 65.15999999999999700 ) ;
#225 = SURFACE_STYLE_USAGE ( .BOTH. , #233 ) ;
#226 = PRESENTATION_STYLE_ASSIGNMENT (( #225 ) ) ;
#227 = STYLED_ITEM ( 'NONE', ( #226 ), #85 ) ;
#228 = SURFACE_STYLE_FILL_AREA ( #232 ) ;
#229 = PRESENTATION_LAYER_ASSIGNMENT (  '', '', ( #227 ) ) ;
#230 = MECHANICAL_DESIGN_GEOMETRIC_PRESENTATION_REPRESENTATION (  '', ( #227 ), #35 ) ;
#231 = COLOUR_RGB ( '',0.7960784313725489700, 0.8235294117647058400, 0.9372549019607843100 ) ;
#232 = FILL_AREA_STYLE ('',( #234 ) ) ;
#233 = SURFACE_SIDE_STYLE ('',( #228 ) ) ;
#234 = FILL_AREA_STYLE_COLOUR ( '', #231 ) ;
#235 = APPLICATION_PROTOCOL_DEFINITION ( 'draft international standard', 'automotive_design', 1998, #236 ) ;
#236 = APPLICATION_CONTEXT ( 'automotive_design' ) ;
#237 = PRODUCT ( '4826-E0W', '4826-E0W', '', ( #238 ) ) ;
#238 = PRODUCT_CONTEXT ( 'NONE', #265, 'mechanical' ) ;
#239 = APPLICATION_PROTOCOL_DEFINITION ( 'draft international standard', 'automotive_design', 1998, #265 ) ;
#240 =( LENGTH_UNIT ( ) NAMED_UNIT ( * ) SI_UNIT ( .MILLI., .METRE. ) );
#241 = MECHANICAL_DESIGN_GEOMETRIC_PRESENTATION_REPRESENTATION (  '', ( #314 ), #312 ) ;
#242 =( NAMED_UNIT ( * ) PLANE_ANGLE_UNIT ( ) SI_UNIT ( $, .RADIAN. ) );
#243 = SURFACE_STYLE_FILL_AREA ( #244 ) ;
#244 = FILL_AREA_STYLE ('',( #245 ) ) ;
#245 = FILL_AREA_STYLE_COLOUR ( '', #246 ) ;
#246 = COLOUR_RGB ( '',0.9568627450980391500, 0.9490196078431372100, 0.9607843137254902200 ) ;
#247 = DIRECTION ( 'NONE',  ( 1.000000000000000000, 0.0000000000000000000, 0.0000000000000000000 ) ) ;
#248 = DIRECTION ( 'NONE',  ( 0.0000000000000000000, 0.0000000000000000000, 1.000000000000000000 ) ) ;
#249 = AXIS2_PLACEMENT_3D ( 'NONE', #273, #248, #247 ) ;
#250 =( GEOMETRIC_REPRESENTATION_CONTEXT ( 3 ) GLOBAL_UNCERTAINTY_ASSIGNED_CONTEXT ( ( #251 ) ) GLOBAL_UNIT_ASSIGNED_CONTEXT ( ( #254, #253, #252 ) ) REPRESENTATION_CONTEXT ( 'NONE', 'WORKASPACE' ) );
#251 = UNCERTAINTY_MEASURE_WITH_UNIT (LENGTH_MEASURE( 1.000000000000000100E-005 ), #254, 'distance_accuracy_value', 'NONE');
#252 =( NAMED_UNIT ( * ) SI_UNIT ( $, .STERADIAN. ) SOLID_ANGLE_UNIT ( ) );
#253 =( NAMED_UNIT ( * ) PLANE_ANGLE_UNIT ( ) SI_UNIT ( $, .RADIAN. ) );
#254 =( LENGTH_UNIT ( ) NAMED_UNIT ( * ) SI_UNIT ( .MILLI., .METRE. ) );
#255 = MECHANICAL_DESIGN_GEOMETRIC_PRESENTATION_REPRESENTATION (  '', ( #257 ), #250 ) ;
#256 = PRESENTATION_LAYER_ASSIGNMENT (  '', '', ( #257 ) ) ;
#257 = STYLED_ITEM ( 'NONE', ( #258 ), #267 ) ;
#258 = PRESENTATION_STYLE_ASSIGNMENT (( #259 ) ) ;
#259 = SURFACE_STYLE_USAGE ( .BOTH. , #260 ) ;
#260 = SURFACE_SIDE_STYLE ('',( #261 ) ) ;
#261 = SURFACE_STYLE_FILL_AREA ( #262 ) ;
#262 = FILL_AREA_STYLE ('',( #263 ) ) ;
#263 = FILL_AREA_STYLE_COLOUR ( '', #264 ) ;
#264 = COLOUR_RGB ( '',0.7960784313725489700, 0.8235294117647058400, 0.9372549019607843100 ) ;
#265 = APPLICATION_CONTEXT ( 'automotive_design' ) ;
#266 = SHAPE_DEFINITION_REPRESENTATION ( #318, #267 ) ;
#267 = ADVANCED_BREP_SHAPE_REPRESENTATION ( '4826-E0W', ( #85, #249 ), #268 ) ;
#268 =( GEOMETRIC_REPRESENTATION_CONTEXT ( 3 ) GLOBAL_UNCERTAINTY_ASSIGNED_CONTEXT ( ( #269 ) ) GLOBAL_UNIT_ASSIGNED_CONTEXT ( ( #272, #271, #270 ) ) REPRESENTATION_CONTEXT ( 'NONE', 'WORKASPACE' ) );
#269 = UNCERTAINTY_MEASURE_WITH_UNIT (LENGTH_MEASURE( 1.000000000000000100E-005 ), #272, 'distance_accuracy_value', 'NONE');
#270 =( NAMED_UNIT ( * ) SI_UNIT ( $, .STERADIAN. ) SOLID_ANGLE_UNIT ( ) );
#271 =( NAMED_UNIT ( * ) PLANE_ANGLE_UNIT ( ) SI_UNIT ( $, .RADIAN. ) );
#272 =( LENGTH_UNIT ( ) NAMED_UNIT ( * ) SI_UNIT ( .MILLI., .METRE. ) );
#273 = CARTESIAN_POINT ( 'NONE',  ( 0.0000000000000000000, 0.0000000000000000000, 0.0000000000000000000 ) ) ;
#274 = CARTESIAN_POINT ( 'NONE',  ( 0.0000000000000000000, 25.40000000000000200, -1.119329701789837600 ) ) ;
#275 = CARTESIAN_POINT ( 'NONE',  ( -25.39999999999999900, 3.110500138708838200E-015, -1.119329701789838500 ) ) ;
#276 = CARTESIAN_POINT ( 'NONE',  ( -25.39999999999999900, 3.110500138708838200E-015, -4.035123887899057800 ) ) ;
#277 = DIRECTION ( 'NONE',  ( 0.0000000000000000000, 1.000000000000000000, 0.0000000000000000000 ) ) ;
#278 = DIRECTION ( 'NONE',  ( -1.000000000000000000, 0.0000000000000000000, 0.0000000000000000000 ) ) ;
#279 = CARTESIAN_POINT ( 'NONE',  ( 0.0000000000000000000, 0.0000000000000000000, -61.12487611210093500 ) ) ;
#280 = AXIS2_PLACEMENT_3D ( 'NONE', #279, #278, #277 ) ;
#281 = SPHERICAL_SURFACE ( 'NONE', #280, 65.15999999999999700 ) ;
#282 =( GEOMETRIC_REPRESENTATION_CONTEXT ( 3 ) GLOBAL_UNCERTAINTY_ASSIGNED_CONTEXT ( ( #288 ) ) GLOBAL_UNIT_ASSIGNED_CONTEXT ( ( #291, #290, #289 ) ) REPRESENTATION_CONTEXT ( 'NONE', 'WORKASPACE' ) );
#283 = UNCERTAINTY_MEASURE_WITH_UNIT (LENGTH_MEASURE( 1.000000000000000100E-005 ), #240, 'distance_accuracy_value', 'NONE');
#284 =( NAMED_UNIT ( * ) SI_UNIT ( $, .STERADIAN. ) SOLID_ANGLE_UNIT ( ) );
#285 = CARTESIAN_POINT ( 'NONE',  ( -3.110500138708838600E-015, -25.40000000000000200, -1.119329701789837600 ) ) ;
#286 = FACE_OUTER_BOUND ( 'NONE', #93, .T. ) ;
#287 = CARTESIAN_POINT ( 'NONE',  ( 0.0000000000000000000, 25.39999999999998800, -4.035123887899059600 ) ) ;
#288 = UNCERTAINTY_MEASURE_WITH_UNIT (LENGTH_MEASURE( 1.000000000000000100E-005 ), #291, 'distance_accuracy_value', 'NONE');
#289 =( NAMED_UNIT ( * ) SI_UNIT ( $, .STERADIAN. ) SOLID_ANGLE_UNIT ( ) );
#290 =( NAMED_UNIT ( * ) PLANE_ANGLE_UNIT ( ) SI_UNIT ( $, .RADIAN. ) );
#291 =( LENGTH_UNIT ( ) NAMED_UNIT ( * ) SI_UNIT ( .MILLI., .METRE. ) );
#292 = MECHANICAL_DESIGN_GEOMETRIC_PRESENTATION_REPRESENTATION (  '', ( #294 ), #282 ) ;
#293 = PRESENTATION_LAYER_ASSIGNMENT (  '', '', ( #294 ) ) ;
#294 = STYLED_ITEM ( 'NONE', ( #295 ), #97 ) ;
#295 = PRESENTATION_STYLE_ASSIGNMENT (( #296 ) ) ;
#296 = SURFACE_STYLE_USAGE ( .BOTH. , #297 ) ;
#297 = SURFACE_SIDE_STYLE ('',( #298 ) ) ;
#298 = SURFACE_STYLE_FILL_AREA ( #299 ) ;
#299 = FILL_AREA_STYLE ('',( #306 ) ) ;
#300 = COLOUR_RGB ( '',0.9568627450980391500, 0.9490196078431372100, 0.9607843137254902200 ) ;
#301 = FACE_OUTER_BOUND ( 'NONE', #69, .T. ) ;
#302 = DIRECTION ( 'NONE',  ( -0.0000000000000000000, -0.0000000000000000000, 1.000000000000000000 ) ) ;
#303 = VECTOR ( 'NONE', #302, 1000.000000000000000 ) ;
#304 = CARTESIAN_POINT ( 'NONE',  ( 25.39999999999999900, 0.0000000000000000000, 9.850227642740110300 ) ) ;
#305 = LINE ( 'NONE', #304, #303 ) ;
#306 = FILL_AREA_STYLE_COLOUR ( '', #300 ) ;
#307 = DIRECTION ( 'NONE',  ( 1.000000000000000000, 0.0000000000000000000, 0.0000000000000000000 ) ) ;
#308 = DIRECTION ( 'NONE',  ( -0.0000000000000000000, -0.0000000000000000000, 1.000000000000000000 ) ) ;
#309 = CARTESIAN_POINT ( 'NONE',  ( 0.0000000000000000000, 0.0000000000000000000, 9.850227642740110300 ) ) ;
#310 = AXIS2_PLACEMENT_3D ( 'NONE', #309, #308, #307 ) ;
#311 = CYLINDRICAL_SURFACE ( 'NONE', #310, 25.39999999999999900 ) ;
#312 =( GEOMETRIC_REPRESENTATION_CONTEXT ( 3 ) GLOBAL_UNCERTAINTY_ASSIGNED_CONTEXT ( ( #283 ) ) GLOBAL_UNIT_ASSIGNED_CONTEXT ( ( #240, #242, #284 ) ) REPRESENTATION_CONTEXT ( 'NONE', 'WORKASPACE' ) );
#313 = PRESENTATION_LAYER_ASSIGNMENT (  '', '', ( #314 ) ) ;
#314 = STYLED_ITEM ( 'NONE', ( #315 ), #90 ) ;
#315 = PRESENTATION_STYLE_ASSIGNMENT (( #316 ) ) ;
#316 = SURFACE_STYLE_USAGE ( .BOTH. , #317 ) ;
#317 = SURFACE_SIDE_STYLE ('',( #243 ) ) ;
#318 = PRODUCT_DEFINITION_SHAPE ( 'NONE', 'NONE',  #321 ) ;
#319 = PRODUCT_RELATED_PRODUCT_CATEGORY ( 'part', '', ( #237 ) ) ;
#320 = PRODUCT_DEFINITION_FORMATION_WITH_SPECIFIED_SOURCE ( 'ANY', '', #237, .NOT_KNOWN. ) ;
#321 = PRODUCT_DEFINITION ( 'UNKNOWN', '', #320, #322 ) ;
#322 = PRODUCT_DEFINITION_CONTEXT ( 'detailed design', #236, 'design' ) ;
ENDSEC;
END-ISO-10303-21;
