ISO-10303-21;
HEADER;
FILE_DESCRIPTION (( 'STEP AP203' ),
    '1' );
FILE_NAME ('Web Model 83344.STEP',
    '2017-02-01T15:18:09',
    ( '' ),
    ( '' ),
    'SwSTEP 2.0',
    'SolidWorks 2016',
    '' );
FILE_SCHEMA (( 'CONFIG_CONTROL_DESIGN' ));
ENDSEC;

DATA;
#1 = CALENDAR_DATE ( 2017, 1, 2 ) ;
#2 = CIRCLE ( 'NONE', #165, 12.50000000000000000 ) ;
#3 = CC_DESIGN_APPROVAL ( #167, ( #151 ) ) ;
#4 = FACE_OUTER_BOUND ( 'NONE', #29, .T. ) ;
#5 = CARTESIAN_POINT ( 'NONE',  ( 2.000000000000000000, 0.0000000000000000000, 12.50000000000000000 ) ) ;
#6 = PERSON_AND_ORGANIZATION ( #96, #37 ) ;
#7 = LINE ( 'NONE', #5, #22 ) ;
#8 = ADVANCED_FACE ( 'NONE', ( #135 ), #101, .T. ) ;
#9 = FACE_OUTER_BOUND ( 'NONE', #160, .T. ) ;
#10 = APPROVAL ( #147, 'UNSPECIFIED' ) ;
#11 = EDGE_LOOP ( 'NONE', ( #46, #53, #86, #12 ) ) ;
#12 = ORIENTED_EDGE ( 'NONE', *, *, #23, .F. ) ;
#13 = EDGE_CURVE ( 'NONE', #94, #170, #97, .T. ) ;
#14 = LOCAL_TIME ( 10, 18, 9.000000000000000000, #111 ) ;
#15 = CARTESIAN_POINT ( 'NONE',  ( 2.000000000000000000, 1.530808498934191500E-015, -12.50000000000000000 ) ) ;
#16 = CARTESIAN_POINT ( 'NONE',  ( 0.0000000000000000000, 0.0000000000000000000, 0.0000000000000000000 ) ) ;
#17 = CARTESIAN_POINT ( 'NONE',  ( 0.0000000000000000000, 0.0000000000000000000, 0.0000000000000000000 ) ) ;
#18 = MECHANICAL_CONTEXT ( 'NONE', #63, 'mechanical' ) ;
#19 = PERSON_AND_ORGANIZATION_ROLE ( 'design_supplier' ) ;
#20 = DIRECTION ( 'NONE',  ( 1.000000000000000000, 0.0000000000000000000, 0.0000000000000000000 ) ) ;
#21 = ORIENTED_EDGE ( 'NONE', *, *, #33, .F. ) ;
#22 = VECTOR ( 'NONE', #73, 1000.000000000000000 ) ;
#23 = EDGE_CURVE ( 'NONE', #66, #38, #7, .T. ) ;
#24 = CALENDAR_DATE ( 2017, 1, 2 ) ;
#25 = CC_DESIGN_SECURITY_CLASSIFICATION ( #137, ( #151 ) ) ;
#26 = SHAPE_DEFINITION_REPRESENTATION ( #150, #175 ) ;
#27 = PERSON_AND_ORGANIZATION ( #96, #37 ) ;
#28 = DIRECTION ( 'NONE',  ( 0.0000000000000000000, 0.0000000000000000000, 1.000000000000000000 ) ) ;
#29 = EDGE_LOOP ( 'NONE', ( #142, #21 ) ) ;
#30 = PLANE ( 'NONE',  #34 ) ;
#31 = DIRECTION ( 'NONE',  ( 0.0000000000000000000, 0.0000000000000000000, -1.000000000000000000 ) ) ;
#32 = APPLICATION_PROTOCOL_DEFINITION ( 'international standard', 'config_control_design', 1994, #63 ) ;
#33 = EDGE_CURVE ( 'NONE', #170, #38, #95, .T. ) ;
#34 = AXIS2_PLACEMENT_3D ( 'NONE', #154, #72, #157 ) ;
#35 = PERSON_AND_ORGANIZATION_ROLE ( 'creator' ) ;
#36 = ORIENTED_EDGE ( 'NONE', *, *, #168, .T. ) ;
#37 = ORGANIZATION ( 'UNSPECIFIED', 'UNSPECIFIED', '' ) ;
#38 = VERTEX_POINT ( 'NONE', #123 ) ;
#39 = VECTOR ( 'NONE', #110, 1000.000000000000000 ) ;
#40 = DIRECTION ( 'NONE',  ( 1.000000000000000000, 0.0000000000000000000, 0.0000000000000000000 ) ) ;
#41 = FACE_OUTER_BOUND ( 'NONE', #127, .T. ) ;
#42 = DIRECTION ( 'NONE',  ( 1.000000000000000000, 0.0000000000000000000, 0.0000000000000000000 ) ) ;
#43 = CARTESIAN_POINT ( 'NONE',  ( 2.000000000000000000, 0.0000000000000000000, 0.0000000000000000000 ) ) ;
#44 = EDGE_CURVE ( 'NONE', #38, #170, #79, .T. ) ;
#45 = CLOSED_SHELL ( 'NONE', ( #8, #117, #120, #48 ) ) ;
#46 = ORIENTED_EDGE ( 'NONE', *, *, #168, .F. ) ;
#47 = PERSON_AND_ORGANIZATION_ROLE ( 'classification_officer' ) ;
#48 = ADVANCED_FACE ( 'NONE', ( #4 ), #59, .F. ) ;
#49 = CIRCLE ( 'NONE', #62, 12.50000000000000000 ) ;
#50 = AXIS2_PLACEMENT_3D ( 'NONE', #140, #166, #141 ) ;
#51 = CALENDAR_DATE ( 2017, 1, 2 ) ;
#52 = PERSON_AND_ORGANIZATION ( #96, #37 ) ;
#53 = ORIENTED_EDGE ( 'NONE', *, *, #13, .T. ) ;
#54 = PERSON_AND_ORGANIZATION ( #96, #37 ) ;
#55 = LOCAL_TIME ( 10, 18, 9.000000000000000000, #91 ) ;
#56 =( LENGTH_UNIT ( ) NAMED_UNIT ( * ) SI_UNIT ( .MILLI., .METRE. ) );
#57 = CC_DESIGN_PERSON_AND_ORGANIZATION_ASSIGNMENT ( #6, #87, ( #124 ) ) ;
#58 = DIRECTION ( 'NONE',  ( 0.0000000000000000000, 0.0000000000000000000, -1.000000000000000000 ) ) ;
#59 = PLANE ( 'NONE',  #113 ) ;
#60 = APPROVAL_DATE_TIME ( #139, #167 ) ;
#61 = AXIS2_PLACEMENT_3D ( 'NONE', #17, #40, #82 ) ;
#62 = AXIS2_PLACEMENT_3D ( 'NONE', #114, #74, #172 ) ;
#63 = APPLICATION_CONTEXT ( 'configuration controlled 3d designs of mechanical parts and assemblies' ) ;
#64 = SECURITY_CLASSIFICATION_LEVEL ( 'unclassified' ) ;
#65 =( NAMED_UNIT ( * ) PLANE_ANGLE_UNIT ( ) SI_UNIT ( $, .RADIAN. ) );
#66 = VERTEX_POINT ( 'NONE', #115 ) ;
#67 = DESIGN_CONTEXT ( 'detailed design', #169, 'design' ) ;
#68 = PERSON_AND_ORGANIZATION ( #96, #37 ) ;
#69 = APPROVAL_DATE_TIME ( #134, #84 ) ;
#70 =( GEOMETRIC_REPRESENTATION_CONTEXT ( 3 ) GLOBAL_UNCERTAINTY_ASSIGNED_CONTEXT ( ( #106 ) ) GLOBAL_UNIT_ASSIGNED_CONTEXT ( ( #56, #65, #119 ) ) REPRESENTATION_CONTEXT ( 'NONE', 'WORKASPACE' ) );
#71 = COORDINATED_UNIVERSAL_TIME_OFFSET ( 5, 0, .BEHIND. ) ;
#72 = DIRECTION ( 'NONE',  ( 1.000000000000000000, 0.0000000000000000000, 0.0000000000000000000 ) ) ;
#73 = DIRECTION ( 'NONE',  ( -1.000000000000000000, -0.0000000000000000000, -0.0000000000000000000 ) ) ;
#74 = DIRECTION ( 'NONE',  ( 1.000000000000000000, 0.0000000000000000000, 0.0000000000000000000 ) ) ;
#75 = APPROVAL_ROLE ( '' ) ;
#76 = CC_DESIGN_APPROVAL ( #10, ( #137 ) ) ;
#77 = PRODUCT_DEFINITION ( 'UNKNOWN', '', #151, #67 ) ;
#78 = ORIENTED_EDGE ( 'NONE', *, *, #23, .T. ) ;
#79 = CIRCLE ( 'NONE', #61, 12.50000000000000000 ) ;
#80 = ORIENTED_EDGE ( 'NONE', *, *, #92, .F. ) ;
#81 = DATE_AND_TIME ( #51, #89 ) ;
#82 = DIRECTION ( 'NONE',  ( 0.0000000000000000000, 0.0000000000000000000, -1.000000000000000000 ) ) ;
#83 = CARTESIAN_POINT ( 'NONE',  ( 2.000000000000000000, 1.530808498934191500E-015, -12.50000000000000000 ) ) ;
#84 = APPROVAL ( #158, 'UNSPECIFIED' ) ;
#85 = CARTESIAN_POINT ( 'NONE',  ( 0.0000000000000000000, 1.530808498934191500E-015, -12.50000000000000000 ) ) ;
#86 = ORIENTED_EDGE ( 'NONE', *, *, #33, .T. ) ;
#87 = PERSON_AND_ORGANIZATION_ROLE ( 'design_owner' ) ;
#88 = APPROVAL_ROLE ( '' ) ;
#89 = LOCAL_TIME ( 10, 18, 9.000000000000000000, #159 ) ;
#90 = APPROVAL_STATUS ( 'not_yet_approved' ) ;
#91 = COORDINATED_UNIVERSAL_TIME_OFFSET ( 5, 0, .BEHIND. ) ;
#92 = EDGE_CURVE ( 'NONE', #66, #94, #2, .T. ) ;
#93 = CC_DESIGN_APPROVAL ( #84, ( #77 ) ) ;
#94 = VERTEX_POINT ( 'NONE', #83 ) ;
#95 = CIRCLE ( 'NONE', #50, 12.50000000000000000 ) ;
#96 = PERSON ( 'UNSPECIFIED', 'UNSPECIFIED', 'UNSPECIFIED', ('UNSPECIFIED'), ('UNSPECIFIED'), ('UNSPECIFIED') ) ;
#97 = LINE ( 'NONE', #15, #39 ) ;
#98 = AXIS2_PLACEMENT_3D ( 'NONE', #102, #130, #20 ) ;
#99 = DIRECTION ( 'NONE',  ( 0.0000000000000000000, 0.0000000000000000000, 1.000000000000000000 ) ) ;
#100 = ORIENTED_EDGE ( 'NONE', *, *, #44, .T. ) ;
#101 = CYLINDRICAL_SURFACE ( 'NONE', #173, 12.50000000000000000 ) ;
#102 = CARTESIAN_POINT ( 'NONE',  ( 0.0000000000000000000, 0.0000000000000000000, 0.0000000000000000000 ) ) ;
#103 = APPLICATION_PROTOCOL_DEFINITION ( 'international standard', 'config_control_design', 1994, #169 ) ;
#104 = CALENDAR_DATE ( 2017, 1, 2 ) ;
#105 = CC_DESIGN_DATE_AND_TIME_ASSIGNMENT ( #122, #132, ( #137 ) ) ;
#106 = UNCERTAINTY_MEASURE_WITH_UNIT (LENGTH_MEASURE( 1.000000000000000100E-005 ), #56, 'distance_accuracy_value', 'NONE');
#107 = APPROVAL_PERSON_ORGANIZATION ( #54, #167, #116 ) ;
#108 = APPROVAL_PERSON_ORGANIZATION ( #149, #84, #88 ) ;
#109 = ORIENTED_EDGE ( 'NONE', *, *, #13, .F. ) ;
#110 = DIRECTION ( 'NONE',  ( -1.000000000000000000, -0.0000000000000000000, -0.0000000000000000000 ) ) ;
#111 = COORDINATED_UNIVERSAL_TIME_OFFSET ( 5, 0, .BEHIND. ) ;
#112 = CARTESIAN_POINT ( 'NONE',  ( 2.000000000000000000, 0.0000000000000000000, 0.0000000000000000000 ) ) ;
#113 = AXIS2_PLACEMENT_3D ( 'NONE', #16, #155, #31 ) ;
#114 = CARTESIAN_POINT ( 'NONE',  ( 2.000000000000000000, 0.0000000000000000000, 0.0000000000000000000 ) ) ;
#115 = CARTESIAN_POINT ( 'NONE',  ( 2.000000000000000000, 0.0000000000000000000, 12.50000000000000000 ) ) ;
#116 = APPROVAL_ROLE ( '' ) ;
#117 = ADVANCED_FACE ( 'NONE', ( #41 ), #146, .T. ) ;
#118 = APPROVAL_DATE_TIME ( #81, #10 ) ;
#119 =( NAMED_UNIT ( * ) SI_UNIT ( $, .STERADIAN. ) SOLID_ANGLE_UNIT ( ) );
#120 = ADVANCED_FACE ( 'NONE', ( #9 ), #30, .T. ) ;
#121 = PERSON_AND_ORGANIZATION_ROLE ( 'creator' ) ;
#122 = DATE_AND_TIME ( #24, #55 ) ;
#123 = CARTESIAN_POINT ( 'NONE',  ( 0.0000000000000000000, 0.0000000000000000000, 12.50000000000000000 ) ) ;
#124 = PRODUCT ( 'Web Model 83344', 'Web Model 83344', '', ( #18 ) ) ;
#125 = CC_DESIGN_PERSON_AND_ORGANIZATION_ASSIGNMENT ( #27, #19, ( #151 ) ) ;
#126 = CARTESIAN_POINT ( 'NONE',  ( 2.000000000000000000, 0.0000000000000000000, 0.0000000000000000000 ) ) ;
#127 = EDGE_LOOP ( 'NONE', ( #109, #80, #78, #100 ) ) ;
#128 = DATE_AND_TIME ( #129, #14 ) ;
#129 = CALENDAR_DATE ( 2017, 1, 2 ) ;
#130 = DIRECTION ( 'NONE',  ( 0.0000000000000000000, 0.0000000000000000000, 1.000000000000000000 ) ) ;
#131 = DATE_TIME_ROLE ( 'creation_date' ) ;
#132 = DATE_TIME_ROLE ( 'classification_date' ) ;
#133 = CC_DESIGN_PERSON_AND_ORGANIZATION_ASSIGNMENT ( #138, #121, ( #77 ) ) ;
#134 = DATE_AND_TIME ( #104, #143 ) ;
#135 = FACE_OUTER_BOUND ( 'NONE', #11, .T. ) ;
#136 = MANIFOLD_SOLID_BREP ( 'Extrude1', #45 ) ;
#137 = SECURITY_CLASSIFICATION ( '', '', #64 ) ;
#138 = PERSON_AND_ORGANIZATION ( #96, #37 ) ;
#139 = DATE_AND_TIME ( #1, #163 ) ;
#140 = CARTESIAN_POINT ( 'NONE',  ( 0.0000000000000000000, 0.0000000000000000000, 0.0000000000000000000 ) ) ;
#141 = DIRECTION ( 'NONE',  ( 0.0000000000000000000, 0.0000000000000000000, -1.000000000000000000 ) ) ;
#142 = ORIENTED_EDGE ( 'NONE', *, *, #44, .F. ) ;
#143 = LOCAL_TIME ( 10, 18, 9.000000000000000000, #71 ) ;
#144 = CC_DESIGN_DATE_AND_TIME_ASSIGNMENT ( #128, #131, ( #77 ) ) ;
#145 = DIRECTION ( 'NONE',  ( -1.000000000000000000, -0.0000000000000000000, -0.0000000000000000000 ) ) ;
#146 = CYLINDRICAL_SURFACE ( 'NONE', #164, 12.50000000000000000 ) ;
#147 = APPROVAL_STATUS ( 'not_yet_approved' ) ;
#148 = COORDINATED_UNIVERSAL_TIME_OFFSET ( 5, 0, .BEHIND. ) ;
#149 = PERSON_AND_ORGANIZATION ( #96, #37 ) ;
#150 = PRODUCT_DEFINITION_SHAPE ( 'NONE', 'NONE',  #77 ) ;
#151 = PRODUCT_DEFINITION_FORMATION_WITH_SPECIFIED_SOURCE ( 'ANY', '', #124, .NOT_KNOWN. ) ;
#152 = DIRECTION ( 'NONE',  ( -1.000000000000000000, -0.0000000000000000000, -0.0000000000000000000 ) ) ;
#153 = CC_DESIGN_PERSON_AND_ORGANIZATION_ASSIGNMENT ( #171, #47, ( #137 ) ) ;
#154 = CARTESIAN_POINT ( 'NONE',  ( 2.000000000000000000, 0.0000000000000000000, 0.0000000000000000000 ) ) ;
#155 = DIRECTION ( 'NONE',  ( 1.000000000000000000, 0.0000000000000000000, 0.0000000000000000000 ) ) ;
#156 = ORIENTED_EDGE ( 'NONE', *, *, #92, .T. ) ;
#157 = DIRECTION ( 'NONE',  ( 0.0000000000000000000, 0.0000000000000000000, -1.000000000000000000 ) ) ;
#158 = APPROVAL_STATUS ( 'not_yet_approved' ) ;
#159 = COORDINATED_UNIVERSAL_TIME_OFFSET ( 5, 0, .BEHIND. ) ;
#160 = EDGE_LOOP ( 'NONE', ( #156, #36 ) ) ;
#161 = CC_DESIGN_PERSON_AND_ORGANIZATION_ASSIGNMENT ( #68, #35, ( #151 ) ) ;
#162 = APPROVAL_PERSON_ORGANIZATION ( #52, #10, #75 ) ;
#163 = LOCAL_TIME ( 10, 18, 9.000000000000000000, #148 ) ;
#164 = AXIS2_PLACEMENT_3D ( 'NONE', #112, #145, #28 ) ;
#165 = AXIS2_PLACEMENT_3D ( 'NONE', #43, #42, #58 ) ;
#166 = DIRECTION ( 'NONE',  ( 1.000000000000000000, 0.0000000000000000000, 0.0000000000000000000 ) ) ;
#167 = APPROVAL ( #90, 'UNSPECIFIED' ) ;
#168 = EDGE_CURVE ( 'NONE', #94, #66, #49, .T. ) ;
#169 = APPLICATION_CONTEXT ( 'configuration controlled 3d designs of mechanical parts and assemblies' ) ;
#170 = VERTEX_POINT ( 'NONE', #85 ) ;
#171 = PERSON_AND_ORGANIZATION ( #96, #37 ) ;
#172 = DIRECTION ( 'NONE',  ( 0.0000000000000000000, 0.0000000000000000000, -1.000000000000000000 ) ) ;
#173 = AXIS2_PLACEMENT_3D ( 'NONE', #126, #152, #99 ) ;
#174 = PRODUCT_RELATED_PRODUCT_CATEGORY ( 'detail', '', ( #124 ) ) ;
#175 = ADVANCED_BREP_SHAPE_REPRESENTATION ( 'Web Model 83344', ( #136, #98 ), #70 ) ;
ENDSEC;
END-ISO-10303-21;
