ISO-10303-21;
HEADER;
FILE_DESCRIPTION (( 'STEP AP203' ),
    '1' );
FILE_NAME ('Web Model 46639_46641.step',
    '2017-04-12T15:54:25',
    ( '' ),
    ( '' ),
    'SwSTEP 2.0',
    'SolidWorks 2016',
    '' );
FILE_SCHEMA (( 'CONFIG_CONTROL_DESIGN' ));
ENDSEC;

DATA;
#1 = CALENDAR_DATE ( 2017, 12, 4 ) ;
#2 = EDGE_CURVE ( 'NONE', #156, #199, #137, .T. ) ;
#3 = PERSON ( 'UNSPECIFIED', 'UNSPECIFIED', 'UNSPECIFIED', ('UNSPECIFIED'), ('UNSPECIFIED'), ('UNSPECIFIED') ) ;
#4 = APPROVAL ( #108, 'UNSPECIFIED' ) ;
#5 = ORIENTED_EDGE ( 'NONE', *, *, #79, .T. ) ;
#6 = DIRECTION ( 'NONE',  ( 0.0000000000000000000, -1.000000000000000000, 0.0000000000000000000 ) ) ;
#7 = EDGE_CURVE ( 'NONE', #225, #223, #179, .T. ) ;
#8 = EDGE_LOOP ( 'NONE', ( #34, #166, #23, #236 ) ) ;
#9 = FACE_OUTER_BOUND ( 'NONE', #228, .T. ) ;
#10 = LINE ( 'NONE', #237, #100 ) ;
#11 = CLOSED_SHELL ( 'NONE', ( #138, #177, #15, #20, #145, #120 ) ) ;
#12 = CC_DESIGN_APPROVAL ( #4, ( #169 ) ) ;
#13 = PERSON_AND_ORGANIZATION ( #3, #133 ) ;
#14 = EDGE_CURVE ( 'NONE', #174, #225, #132, .T. ) ;
#15 = ADVANCED_FACE ( 'NONE', ( #24 ), #154, .F. ) ;
#16 = SECURITY_CLASSIFICATION_LEVEL ( 'unclassified' ) ;
#17 = DESIGN_CONTEXT ( 'detailed design', #231, 'design' ) ;
#18 = EDGE_CURVE ( 'NONE', #199, #225, #164, .T. ) ;
#19 = ORIENTED_EDGE ( 'NONE', *, *, #14, .F. ) ;
#20 = ADVANCED_FACE ( 'NONE', ( #195 ), #42, .F. ) ;
#21 = DATE_TIME_ROLE ( 'classification_date' ) ;
#22 = PLANE ( 'NONE',  #142 ) ;
#23 = ORIENTED_EDGE ( 'NONE', *, *, #37, .F. ) ;
#24 = FACE_OUTER_BOUND ( 'NONE', #188, .T. ) ;
#25 = VECTOR ( 'NONE', #159, 1000.000000000000000 ) ;
#26 = PLANE ( 'NONE',  #224 ) ;
#27 = CC_DESIGN_PERSON_AND_ORGANIZATION_ASSIGNMENT ( #96, #81, ( #169 ) ) ;
#28 = CARTESIAN_POINT ( 'NONE',  ( 37.50000000000000000, 37.50000000000000000, -0.5000000000000000000 ) ) ;
#29 = DATE_TIME_ROLE ( 'creation_date' ) ;
#30 = PERSON_AND_ORGANIZATION ( #3, #133 ) ;
#31 = FACE_OUTER_BOUND ( 'NONE', #170, .T. ) ;
#32 =( NAMED_UNIT ( * ) SI_UNIT ( $, .STERADIAN. ) SOLID_ANGLE_UNIT ( ) );
#33 = AXIS2_PLACEMENT_3D ( 'NONE', #210, #71, #131 ) ;
#34 = ORIENTED_EDGE ( 'NONE', *, *, #39, .T. ) ;
#35 = FACE_OUTER_BOUND ( 'NONE', #8, .T. ) ;
#36 = VECTOR ( 'NONE', #6, 1000.000000000000000 ) ;
#37 = EDGE_CURVE ( 'NONE', #121, #198, #232, .T. ) ;
#38 = COORDINATED_UNIVERSAL_TIME_OFFSET ( 5, 0, .BEHIND. ) ;
#39 = EDGE_CURVE ( 'NONE', #223, #156, #201, .T. ) ;
#40 = LINE ( 'NONE', #91, #182 ) ;
#41 = CC_DESIGN_PERSON_AND_ORGANIZATION_ASSIGNMENT ( #13, #172, ( #169 ) ) ;
#42 = PLANE ( 'NONE',  #207 ) ;
#43 = PERSON_AND_ORGANIZATION ( #3, #133 ) ;
#44 = CALENDAR_DATE ( 2017, 12, 4 ) ;
#45 = CARTESIAN_POINT ( 'NONE',  ( 37.50000000000000000, -37.50000000000000000, 0.5000000000000000000 ) ) ;
#46 = PERSON_AND_ORGANIZATION_ROLE ( 'creator' ) ;
#47 = CARTESIAN_POINT ( 'NONE',  ( 37.50000000000000000, 37.50000000000000000, 0.5000000000000000000 ) ) ;
#48 = LINE ( 'NONE', #171, #200 ) ;
#49 = PRODUCT_DEFINITION ( 'UNKNOWN', '', #169, #17 ) ;
#50 = DIRECTION ( 'NONE',  ( -0.0000000000000000000, -0.0000000000000000000, -1.000000000000000000 ) ) ;
#51 = EDGE_CURVE ( 'NONE', #121, #223, #149, .T. ) ;
#52 = ORIENTED_EDGE ( 'NONE', *, *, #59, .T. ) ;
#53 = SECURITY_CLASSIFICATION ( '', '', #16 ) ;
#54 = LOCAL_TIME ( 11, 54, 25.00000000000000000, #77 ) ;
#55 = CC_DESIGN_PERSON_AND_ORGANIZATION_ASSIGNMENT ( #78, #113, ( #206 ) ) ;
#56 =( LENGTH_UNIT ( ) NAMED_UNIT ( * ) SI_UNIT ( .MILLI., .METRE. ) );
#57 = DIRECTION ( 'NONE',  ( 0.0000000000000000000, 0.0000000000000000000, 1.000000000000000000 ) ) ;
#58 = LINE ( 'NONE', #70, #87 ) ;
#59 = EDGE_CURVE ( 'NONE', #217, #199, #58, .T. ) ;
#60 = CARTESIAN_POINT ( 'NONE',  ( -37.50000000000000000, 37.50000000000000000, 0.5000000000000000000 ) ) ;
#61 = FACE_OUTER_BOUND ( 'NONE', #139, .T. ) ;
#62 = ORIENTED_EDGE ( 'NONE', *, *, #88, .F. ) ;
#63 = VECTOR ( 'NONE', #50, 1000.000000000000000 ) ;
#64 = CC_DESIGN_PERSON_AND_ORGANIZATION_ASSIGNMENT ( #30, #168, ( #53 ) ) ;
#65 = DIRECTION ( 'NONE',  ( 0.0000000000000000000, -0.0000000000000000000, -1.000000000000000000 ) ) ;
#66 = AXIS2_PLACEMENT_3D ( 'NONE', #115, #57, #114 ) ;
#67 = LINE ( 'NONE', #60, #36 ) ;
#68 = DATE_AND_TIME ( #129, #54 ) ;
#69 = DATE_AND_TIME ( #1, #222 ) ;
#70 = CARTESIAN_POINT ( 'NONE',  ( -37.50000000000000000, -37.50000000000000000, 0.5000000000000000000 ) ) ;
#71 = DIRECTION ( 'NONE',  ( -0.0000000000000000000, 0.0000000000000000000, 1.000000000000000000 ) ) ;
#72 = CC_DESIGN_DATE_AND_TIME_ASSIGNMENT ( #68, #21, ( #53 ) ) ;
#73 = CARTESIAN_POINT ( 'NONE',  ( -37.50000000000000000, 37.50000000000000000, -0.5000000000000000000 ) ) ;
#74 = DIRECTION ( 'NONE',  ( -0.0000000000000000000, 1.000000000000000000, -0.0000000000000000000 ) ) ;
#75 = VECTOR ( 'NONE', #74, 1000.000000000000000 ) ;
#76 = PLANE ( 'NONE',  #118 ) ;
#77 = COORDINATED_UNIVERSAL_TIME_OFFSET ( 5, 0, .BEHIND. ) ;
#78 = PERSON_AND_ORGANIZATION ( #3, #133 ) ;
#79 = EDGE_CURVE ( 'NONE', #217, #174, #48, .T. ) ;
#80 = APPROVAL_ROLE ( '' ) ;
#81 = PERSON_AND_ORGANIZATION_ROLE ( 'creator' ) ;
#82 = APPROVAL ( #147, 'UNSPECIFIED' ) ;
#83 = ORIENTED_EDGE ( 'NONE', *, *, #88, .T. ) ;
#84 = EDGE_CURVE ( 'NONE', #198, #156, #10, .T. ) ;
#85 = ORIENTED_EDGE ( 'NONE', *, *, #59, .F. ) ;
#86 = ORIENTED_EDGE ( 'NONE', *, *, #2, .T. ) ;
#87 = VECTOR ( 'NONE', #213, 1000.000000000000000 ) ;
#88 = EDGE_CURVE ( 'NONE', #198, #217, #67, .T. ) ;
#89 = DIRECTION ( 'NONE',  ( 1.000000000000000000, 0.0000000000000000000, 0.0000000000000000000 ) ) ;
#90 = CALENDAR_DATE ( 2017, 12, 4 ) ;
#91 = CARTESIAN_POINT ( 'NONE',  ( 37.50000000000000000, 37.50000000000000000, 0.5000000000000000000 ) ) ;
#92 = CARTESIAN_POINT ( 'NONE',  ( -37.50000000000000000, 37.50000000000000000, -0.5000000000000000000 ) ) ;
#93 = PRODUCT_DEFINITION_SHAPE ( 'NONE', 'NONE',  #49 ) ;
#94 = CC_DESIGN_APPROVAL ( #82, ( #53 ) ) ;
#95 = APPROVAL_PERSON_ORGANIZATION ( #221, #4, #106 ) ;
#96 = PERSON_AND_ORGANIZATION ( #3, #133 ) ;
#97 = CARTESIAN_POINT ( 'NONE',  ( 37.50000000000000000, -37.50000000000000000, -0.5000000000000000000 ) ) ;
#98 = ORIENTED_EDGE ( 'NONE', *, *, #14, .T. ) ;
#99 = APPROVAL_STATUS ( 'not_yet_approved' ) ;
#100 = VECTOR ( 'NONE', #202, 1000.000000000000000 ) ;
#101 = ORIENTED_EDGE ( 'NONE', *, *, #7, .F. ) ;
#102 = EDGE_CURVE ( 'NONE', #174, #121, #40, .T. ) ;
#103 = ORIENTED_EDGE ( 'NONE', *, *, #18, .T. ) ;
#104 = CARTESIAN_POINT ( 'NONE',  ( -37.50000000000000000, 37.50000000000000000, 0.5000000000000000000 ) ) ;
#105 = ORIENTED_EDGE ( 'NONE', *, *, #79, .F. ) ;
#106 = APPROVAL_ROLE ( '' ) ;
#107 = CARTESIAN_POINT ( 'NONE',  ( -37.50000000000000000, -37.50000000000000000, 0.5000000000000000000 ) ) ;
#108 = APPROVAL_STATUS ( 'not_yet_approved' ) ;
#109 = APPROVAL_PERSON_ORGANIZATION ( #43, #160, #234 ) ;
#110 = EDGE_LOOP ( 'NONE', ( #103, #19, #105, #52 ) ) ;
#111 = CC_DESIGN_SECURITY_CLASSIFICATION ( #53, ( #169 ) ) ;
#112 = CARTESIAN_POINT ( 'NONE',  ( 37.50000000000000000, -37.50000000000000000, 0.5000000000000000000 ) ) ;
#113 = PERSON_AND_ORGANIZATION_ROLE ( 'design_owner' ) ;
#114 = DIRECTION ( 'NONE',  ( 1.000000000000000000, 0.0000000000000000000, 0.0000000000000000000 ) ) ;
#115 = CARTESIAN_POINT ( 'NONE',  ( 0.0000000000000000000, 0.0000000000000000000, 0.0000000000000000000 ) ) ;
#116 = CARTESIAN_POINT ( 'NONE',  ( -37.50000000000000000, -37.50000000000000000, -0.5000000000000000000 ) ) ;
#117 = CARTESIAN_POINT ( 'NONE',  ( 37.50000000000000000, 37.50000000000000000, -0.5000000000000000000 ) ) ;
#118 = AXIS2_PLACEMENT_3D ( 'NONE', #208, #126, #89 ) ;
#119 = APPLICATION_CONTEXT ( 'configuration controlled 3d designs of mechanical parts and assemblies' ) ;
#120 = ADVANCED_FACE ( 'NONE', ( #9 ), #76, .F. ) ;
#121 = VERTEX_POINT ( 'NONE', #190 ) ;
#122 = PRODUCT_RELATED_PRODUCT_CATEGORY ( 'detail', '', ( #206 ) ) ;
#123 = PERSON_AND_ORGANIZATION ( #3, #133 ) ;
#124 = DATE_AND_TIME ( #150, #135 ) ;
#125 = ORIENTED_EDGE ( 'NONE', *, *, #7, .T. ) ;
#126 = DIRECTION ( 'NONE',  ( -0.0000000000000000000, 0.0000000000000000000, 1.000000000000000000 ) ) ;
#127 = COORDINATED_UNIVERSAL_TIME_OFFSET ( 5, 0, .BEHIND. ) ;
#128 =( GEOMETRIC_REPRESENTATION_CONTEXT ( 3 ) GLOBAL_UNCERTAINTY_ASSIGNED_CONTEXT ( ( #214 ) ) GLOBAL_UNIT_ASSIGNED_CONTEXT ( ( #56, #152, #32 ) ) REPRESENTATION_CONTEXT ( 'NONE', 'WORKASPACE' ) );
#129 = CALENDAR_DATE ( 2017, 12, 4 ) ;
#130 = APPROVAL_PERSON_ORGANIZATION ( #123, #82, #80 ) ;
#131 = DIRECTION ( 'NONE',  ( 1.000000000000000000, 0.0000000000000000000, 0.0000000000000000000 ) ) ;
#132 = LINE ( 'NONE', #45, #185 ) ;
#133 = ORGANIZATION ( 'UNSPECIFIED', 'UNSPECIFIED', '' ) ;
#134 = ORIENTED_EDGE ( 'NONE', *, *, #51, .F. ) ;
#135 = LOCAL_TIME ( 11, 54, 25.00000000000000000, #38 ) ;
#136 = CARTESIAN_POINT ( 'NONE',  ( -37.50000000000000000, 37.50000000000000000, 0.5000000000000000000 ) ) ;
#137 = LINE ( 'NONE', #158, #230 ) ;
#138 = ADVANCED_FACE ( 'NONE', ( #61 ), #26, .F. ) ;
#139 = EDGE_LOOP ( 'NONE', ( #125, #134, #226, #98 ) ) ;
#140 = COORDINATED_UNIVERSAL_TIME_OFFSET ( 5, 0, .BEHIND. ) ;
#141 = DIRECTION ( 'NONE',  ( 0.0000000000000000000, -1.000000000000000000, 0.0000000000000000000 ) ) ;
#142 = AXIS2_PLACEMENT_3D ( 'NONE', #136, #141, #65 ) ;
#143 = SHAPE_DEFINITION_REPRESENTATION ( #93, #187 ) ;
#144 = ORIENTED_EDGE ( 'NONE', *, *, #102, .T. ) ;
#145 = ADVANCED_FACE ( 'NONE', ( #31 ), #161, .T. ) ;
#146 = DIRECTION ( 'NONE',  ( -0.0000000000000000000, -0.0000000000000000000, -1.000000000000000000 ) ) ;
#147 = APPROVAL_STATUS ( 'not_yet_approved' ) ;
#148 = DIRECTION ( 'NONE',  ( 1.000000000000000000, 0.0000000000000000000, 0.0000000000000000000 ) ) ;
#149 = LINE ( 'NONE', #47, #63 ) ;
#150 = CALENDAR_DATE ( 2017, 12, 4 ) ;
#151 = CARTESIAN_POINT ( 'NONE',  ( -37.50000000000000000, -37.50000000000000000, -0.5000000000000000000 ) ) ;
#152 =( NAMED_UNIT ( * ) PLANE_ANGLE_UNIT ( ) SI_UNIT ( $, .RADIAN. ) );
#153 = CARTESIAN_POINT ( 'NONE',  ( -37.50000000000000000, 37.50000000000000000, 0.5000000000000000000 ) ) ;
#154 = PLANE ( 'NONE',  #212 ) ;
#155 = MANIFOLD_SOLID_BREP ( 'Boss-Extrude1', #11 ) ;
#156 = VERTEX_POINT ( 'NONE', #73 ) ;
#157 = ORIENTED_EDGE ( 'NONE', *, *, #18, .F. ) ;
#158 = CARTESIAN_POINT ( 'NONE',  ( -37.50000000000000000, 37.50000000000000000, -0.5000000000000000000 ) ) ;
#159 = DIRECTION ( 'NONE',  ( -1.000000000000000000, -0.0000000000000000000, -0.0000000000000000000 ) ) ;
#160 = APPROVAL ( #99, 'UNSPECIFIED' ) ;
#161 = PLANE ( 'NONE',  #33 ) ;
#162 = COORDINATED_UNIVERSAL_TIME_OFFSET ( 5, 0, .BEHIND. ) ;
#163 = APPLICATION_PROTOCOL_DEFINITION ( 'international standard', 'config_control_design', 1994, #231 ) ;
#164 = LINE ( 'NONE', #116, #215 ) ;
#165 = LOCAL_TIME ( 11, 54, 25.00000000000000000, #127 ) ;
#166 = ORIENTED_EDGE ( 'NONE', *, *, #84, .F. ) ;
#167 = DIRECTION ( 'NONE',  ( -1.000000000000000000, -0.0000000000000000000, -0.0000000000000000000 ) ) ;
#168 = PERSON_AND_ORGANIZATION_ROLE ( 'classification_officer' ) ;
#169 = PRODUCT_DEFINITION_FORMATION_WITH_SPECIFIED_SOURCE ( 'ANY', '', #206, .NOT_KNOWN. ) ;
#170 = EDGE_LOOP ( 'NONE', ( #144, #173, #83, #5 ) ) ;
#171 = CARTESIAN_POINT ( 'NONE',  ( -37.50000000000000000, -37.50000000000000000, 0.5000000000000000000 ) ) ;
#172 = PERSON_AND_ORGANIZATION_ROLE ( 'design_supplier' ) ;
#173 = ORIENTED_EDGE ( 'NONE', *, *, #37, .T. ) ;
#174 = VERTEX_POINT ( 'NONE', #112 ) ;
#175 = DIRECTION ( 'NONE',  ( 1.000000000000000000, 0.0000000000000000000, 0.0000000000000000000 ) ) ;
#176 = ORIENTED_EDGE ( 'NONE', *, *, #84, .T. ) ;
#177 = ADVANCED_FACE ( 'NONE', ( #35 ), #22, .F. ) ;
#178 = DIRECTION ( 'NONE',  ( 0.0000000000000000000, 0.0000000000000000000, 1.000000000000000000 ) ) ;
#179 = LINE ( 'NONE', #117, #75 ) ;
#180 = PERSON_AND_ORGANIZATION ( #3, #133 ) ;
#181 = DIRECTION ( 'NONE',  ( 0.0000000000000000000, 1.000000000000000000, 0.0000000000000000000 ) ) ;
#182 = VECTOR ( 'NONE', #197, 1000.000000000000000 ) ;
#183 = CC_DESIGN_PERSON_AND_ORGANIZATION_ASSIGNMENT ( #180, #46, ( #49 ) ) ;
#184 = DATE_AND_TIME ( #44, #165 ) ;
#185 = VECTOR ( 'NONE', #146, 1000.000000000000000 ) ;
#186 = VECTOR ( 'NONE', #167, 1000.000000000000000 ) ;
#187 = ADVANCED_BREP_SHAPE_REPRESENTATION ( 'Web Model 46639_46641', ( #155, #66 ), #128 ) ;
#188 = EDGE_LOOP ( 'NONE', ( #86, #85, #62, #176 ) ) ;
#189 = DIRECTION ( 'NONE',  ( -0.0000000000000000000, 0.0000000000000000000, -1.000000000000000000 ) ) ;
#190 = CARTESIAN_POINT ( 'NONE',  ( 37.50000000000000000, 37.50000000000000000, 0.5000000000000000000 ) ) ;
#191 = DIRECTION ( 'NONE',  ( -1.000000000000000000, 0.0000000000000000000, 0.0000000000000000000 ) ) ;
#192 = CARTESIAN_POINT ( 'NONE',  ( -37.50000000000000000, 37.50000000000000000, 0.5000000000000000000 ) ) ;
#193 = CC_DESIGN_DATE_AND_TIME_ASSIGNMENT ( #69, #29, ( #49 ) ) ;
#194 = DIRECTION ( 'NONE',  ( 0.0000000000000000000, -1.000000000000000000, 0.0000000000000000000 ) ) ;
#195 = FACE_OUTER_BOUND ( 'NONE', #110, .T. ) ;
#196 = APPLICATION_PROTOCOL_DEFINITION ( 'international standard', 'config_control_design', 1994, #119 ) ;
#197 = DIRECTION ( 'NONE',  ( -0.0000000000000000000, 1.000000000000000000, -0.0000000000000000000 ) ) ;
#198 = VERTEX_POINT ( 'NONE', #192 ) ;
#199 = VERTEX_POINT ( 'NONE', #151 ) ;
#200 = VECTOR ( 'NONE', #175, 1000.000000000000000 ) ;
#201 = LINE ( 'NONE', #92, #186 ) ;
#202 = DIRECTION ( 'NONE',  ( -0.0000000000000000000, -0.0000000000000000000, -1.000000000000000000 ) ) ;
#203 = CC_DESIGN_APPROVAL ( #160, ( #49 ) ) ;
#204 = DIRECTION ( 'NONE',  ( 1.000000000000000000, 0.0000000000000000000, -0.0000000000000000000 ) ) ;
#205 = APPROVAL_DATE_TIME ( #219, #160 ) ;
#206 = PRODUCT ( 'Web Model 46639_46641', 'Web Model 46639_46641', '', ( #227 ) ) ;
#207 = AXIS2_PLACEMENT_3D ( 'NONE', #220, #181, #233 ) ;
#208 = CARTESIAN_POINT ( 'NONE',  ( 0.0000000000000000000, 0.0000000000000000000, -0.5000000000000000000 ) ) ;
#209 = APPROVAL_DATE_TIME ( #124, #82 ) ;
#210 = CARTESIAN_POINT ( 'NONE',  ( 0.0000000000000000000, 0.0000000000000000000, 0.5000000000000000000 ) ) ;
#211 = APPROVAL_DATE_TIME ( #184, #4 ) ;
#212 = AXIS2_PLACEMENT_3D ( 'NONE', #104, #204, #189 ) ;
#213 = DIRECTION ( 'NONE',  ( -0.0000000000000000000, -0.0000000000000000000, -1.000000000000000000 ) ) ;
#214 = UNCERTAINTY_MEASURE_WITH_UNIT (LENGTH_MEASURE( 1.000000000000000100E-005 ), #56, 'distance_accuracy_value', 'NONE');
#215 = VECTOR ( 'NONE', #148, 1000.000000000000000 ) ;
#216 = LOCAL_TIME ( 11, 54, 25.00000000000000000, #162 ) ;
#217 = VERTEX_POINT ( 'NONE', #107 ) ;
#218 = ORIENTED_EDGE ( 'NONE', *, *, #39, .F. ) ;
#219 = DATE_AND_TIME ( #90, #216 ) ;
#220 = CARTESIAN_POINT ( 'NONE',  ( -37.50000000000000000, -37.50000000000000000, 0.5000000000000000000 ) ) ;
#221 = PERSON_AND_ORGANIZATION ( #3, #133 ) ;
#222 = LOCAL_TIME ( 11, 54, 25.00000000000000000, #140 ) ;
#223 = VERTEX_POINT ( 'NONE', #28 ) ;
#224 = AXIS2_PLACEMENT_3D ( 'NONE', #229, #191, #178 ) ;
#225 = VERTEX_POINT ( 'NONE', #97 ) ;
#226 = ORIENTED_EDGE ( 'NONE', *, *, #102, .F. ) ;
#227 = MECHANICAL_CONTEXT ( 'NONE', #119, 'mechanical' ) ;
#228 = EDGE_LOOP ( 'NONE', ( #101, #157, #235, #218 ) ) ;
#229 = CARTESIAN_POINT ( 'NONE',  ( 37.50000000000000000, 37.50000000000000000, 0.5000000000000000000 ) ) ;
#230 = VECTOR ( 'NONE', #194, 1000.000000000000000 ) ;
#231 = APPLICATION_CONTEXT ( 'configuration controlled 3d designs of mechanical parts and assemblies' ) ;
#232 = LINE ( 'NONE', #153, #25 ) ;
#233 = DIRECTION ( 'NONE',  ( 0.0000000000000000000, -0.0000000000000000000, 1.000000000000000000 ) ) ;
#234 = APPROVAL_ROLE ( '' ) ;
#235 = ORIENTED_EDGE ( 'NONE', *, *, #2, .F. ) ;
#236 = ORIENTED_EDGE ( 'NONE', *, *, #51, .T. ) ;
#237 = CARTESIAN_POINT ( 'NONE',  ( -37.50000000000000000, 37.50000000000000000, 0.5000000000000000000 ) ) ;
ENDSEC;
END-ISO-10303-21;
