ISO-10303-21;
HEADER;
FILE_DESCRIPTION (( 'STEP AP203' ),
    '1' );
FILE_NAME ('Web Model 39234_39265.step',
    '2018-07-25T17:11:06',
    ( '' ),
    ( '' ),
    'SwSTEP 2.0',
    'SolidWorks 2016',
    '' );
FILE_SCHEMA (( 'CONFIG_CONTROL_DESIGN' ));
ENDSEC;

DATA;
#1 = ORIENTED_EDGE ( 'NONE', *, *, #125, .F. ) ;
#2 = AXIS2_PLACEMENT_3D ( 'NONE', #49, #5, #101 ) ;
#3 = FACE_OUTER_BOUND ( 'NONE', #173, .T. ) ;
#4 = CARTESIAN_POINT ( 'NONE',  ( 0.0000000000000000000, 0.0000000000000000000, 0.5000000000000000000 ) ) ;
#5 = DIRECTION ( 'NONE',  ( -0.0000000000000000000, -0.0000000000000000000, -1.000000000000000000 ) ) ;
#6 = APPROVAL_PERSON_ORGANIZATION ( #76, #92, #168 ) ;
#7 = APPROVAL_STATUS ( 'not_yet_approved' ) ;
#8 = PERSON_AND_ORGANIZATION ( #129, #147 ) ;
#9 = CIRCLE ( 'NONE', #118, 15.00000000000000000 ) ;
#10 = UNCERTAINTY_MEASURE_WITH_UNIT (LENGTH_MEASURE( 1.000000000000000100E-005 ), #153, 'distance_accuracy_value', 'NONE');
#11 = EDGE_LOOP ( 'NONE', ( #1, #20, #24, #127 ) ) ;
#12 = DIRECTION ( 'NONE',  ( 1.000000000000000000, 0.0000000000000000000, -0.0000000000000000000 ) ) ;
#13 = DIRECTION ( 'NONE',  ( 0.0000000000000000000, 0.0000000000000000000, 1.000000000000000000 ) ) ;
#14 = VERTEX_POINT ( 'NONE', #57 ) ;
#15 = CARTESIAN_POINT ( 'NONE',  ( -15.00000000000000000, 0.0000000000000000000, 0.5000000000000000000 ) ) ;
#16 = CC_DESIGN_PERSON_AND_ORGANIZATION_ASSIGNMENT ( #8, #68, ( #146 ) ) ;
#17 = VECTOR ( 'NONE', #166, 1000.000000000000000 ) ;
#18 = COORDINATED_UNIVERSAL_TIME_OFFSET ( 5, 0, .BEHIND. ) ;
#19 = PERSON_AND_ORGANIZATION ( #129, #147 ) ;
#20 = ORIENTED_EDGE ( 'NONE', *, *, #135, .F. ) ;
#21 = DIRECTION ( 'NONE',  ( -0.0000000000000000000, -0.0000000000000000000, -1.000000000000000000 ) ) ;
#22 = APPROVAL_DATE_TIME ( #119, #117 ) ;
#23 = DATE_AND_TIME ( #67, #81 ) ;
#24 = ORIENTED_EDGE ( 'NONE', *, *, #27, .T. ) ;
#25 = CARTESIAN_POINT ( 'NONE',  ( 0.0000000000000000000, 0.0000000000000000000, -0.5000000000000000000 ) ) ;
#26 = CC_DESIGN_PERSON_AND_ORGANIZATION_ASSIGNMENT ( #71, #53, ( #37 ) ) ;
#27 = EDGE_CURVE ( 'NONE', #134, #103, #100, .T. ) ;
#28 = DIRECTION ( 'NONE',  ( 1.000000000000000000, 0.0000000000000000000, 0.0000000000000000000 ) ) ;
#29 = PERSON_AND_ORGANIZATION ( #129, #147 ) ;
#30 = DIRECTION ( 'NONE',  ( 0.0000000000000000000, 0.0000000000000000000, 1.000000000000000000 ) ) ;
#31 = ORIENTED_EDGE ( 'NONE', *, *, #80, .F. ) ;
#32 = APPLICATION_PROTOCOL_DEFINITION ( 'international standard', 'config_control_design', 1994, #111 ) ;
#33 = CALENDAR_DATE ( 2018, 25, 7 ) ;
#34 = ORIENTED_EDGE ( 'NONE', *, *, #42, .T. ) ;
#35 = LOCAL_TIME ( 13, 11, 6.000000000000000000, #40 ) ;
#36 = ORIENTED_EDGE ( 'NONE', *, *, #135, .T. ) ;
#37 = SECURITY_CLASSIFICATION ( '', '', #145 ) ;
#38 = PRODUCT ( 'Web Model 39234_39265', 'Web Model 39234_39265', '', ( #90 ) ) ;
#39 = CARTESIAN_POINT ( 'NONE',  ( 0.0000000000000000000, 0.0000000000000000000, -0.5000000000000000000 ) ) ;
#40 = COORDINATED_UNIVERSAL_TIME_OFFSET ( 5, 0, .BEHIND. ) ;
#41 = CYLINDRICAL_SURFACE ( 'NONE', #65, 15.00000000000000000 ) ;
#42 = EDGE_CURVE ( 'NONE', #14, #134, #164, .T. ) ;
#43 = DIRECTION ( 'NONE',  ( 1.000000000000000000, 0.0000000000000000000, 0.0000000000000000000 ) ) ;
#44 = CALENDAR_DATE ( 2018, 25, 7 ) ;
#45 = CARTESIAN_POINT ( 'NONE',  ( 15.00000000000000000, 1.836970198721029600E-015, 0.5000000000000000000 ) ) ;
#46 = ADVANCED_FACE ( 'NONE', ( #94 ), #105, .F. ) ;
#47 = CIRCLE ( 'NONE', #128, 15.00000000000000000 ) ;
#48 = APPLICATION_CONTEXT ( 'configuration controlled 3d designs of mechanical parts and assemblies' ) ;
#49 = CARTESIAN_POINT ( 'NONE',  ( 0.0000000000000000000, 0.0000000000000000000, 0.5000000000000000000 ) ) ;
#50 = CC_DESIGN_DATE_AND_TIME_ASSIGNMENT ( #149, #55, ( #37 ) ) ;
#51 = APPLICATION_PROTOCOL_DEFINITION ( 'international standard', 'config_control_design', 1994, #48 ) ;
#52 = APPROVAL_STATUS ( 'not_yet_approved' ) ;
#53 = PERSON_AND_ORGANIZATION_ROLE ( 'classification_officer' ) ;
#54 = CYLINDRICAL_SURFACE ( 'NONE', #2, 15.00000000000000000 ) ;
#55 = DATE_TIME_ROLE ( 'classification_date' ) ;
#56 = LOCAL_TIME ( 13, 11, 6.000000000000000000, #163 ) ;
#57 = CARTESIAN_POINT ( 'NONE',  ( 15.00000000000000000, 1.836970198721029600E-015, 0.5000000000000000000 ) ) ;
#58 = CARTESIAN_POINT ( 'NONE',  ( -15.00000000000000000, 0.0000000000000000000, 0.5000000000000000000 ) ) ;
#59 = DIRECTION ( 'NONE',  ( 0.0000000000000000000, 0.0000000000000000000, 1.000000000000000000 ) ) ;
#60 = DIRECTION ( 'NONE',  ( -0.0000000000000000000, -0.0000000000000000000, -1.000000000000000000 ) ) ;
#61 = DATE_AND_TIME ( #33, #131 ) ;
#62 = CARTESIAN_POINT ( 'NONE',  ( 15.00000000000000000, 1.836970198721029600E-015, -0.5000000000000000000 ) ) ;
#63 = APPROVAL_DATE_TIME ( #23, #92 ) ;
#64 = APPROVAL_ROLE ( '' ) ;
#65 = AXIS2_PLACEMENT_3D ( 'NONE', #85, #60, #86 ) ;
#66 = EDGE_LOOP ( 'NONE', ( #36, #34 ) ) ;
#67 = CALENDAR_DATE ( 2018, 25, 7 ) ;
#68 = PERSON_AND_ORGANIZATION_ROLE ( 'design_supplier' ) ;
#69 = FACE_OUTER_BOUND ( 'NONE', #11, .T. ) ;
#70 = EDGE_CURVE ( 'NONE', #103, #120, #124, .T. ) ;
#71 = PERSON_AND_ORGANIZATION ( #129, #147 ) ;
#72 = EDGE_LOOP ( 'NONE', ( #73, #31 ) ) ;
#73 = ORIENTED_EDGE ( 'NONE', *, *, #70, .F. ) ;
#74 = AXIS2_PLACEMENT_3D ( 'NONE', #39, #138, #12 ) ;
#75 = DIRECTION ( 'NONE',  ( 1.000000000000000000, 0.0000000000000000000, 0.0000000000000000000 ) ) ;
#76 = PERSON_AND_ORGANIZATION ( #129, #147 ) ;
#77 =( NAMED_UNIT ( * ) PLANE_ANGLE_UNIT ( ) SI_UNIT ( $, .RADIAN. ) );
#78 = DESIGN_CONTEXT ( 'detailed design', #111, 'design' ) ;
#79 = AXIS2_PLACEMENT_3D ( 'NONE', #116, #158, #102 ) ;
#80 = EDGE_CURVE ( 'NONE', #120, #103, #47, .T. ) ;
#81 = LOCAL_TIME ( 13, 11, 6.000000000000000000, #154 ) ;
#82 = AXIS2_PLACEMENT_3D ( 'NONE', #110, #140, #123 ) ;
#83 = COORDINATED_UNIVERSAL_TIME_OFFSET ( 5, 0, .BEHIND. ) ;
#84 = PRODUCT_DEFINITION ( 'UNKNOWN', '', #146, #78 ) ;
#85 = CARTESIAN_POINT ( 'NONE',  ( 0.0000000000000000000, 0.0000000000000000000, 0.5000000000000000000 ) ) ;
#86 = DIRECTION ( 'NONE',  ( -1.000000000000000000, 0.0000000000000000000, 0.0000000000000000000 ) ) ;
#87 = PERSON_AND_ORGANIZATION_ROLE ( 'creator' ) ;
#88 = CARTESIAN_POINT ( 'NONE',  ( 0.0000000000000000000, 0.0000000000000000000, 0.5000000000000000000 ) ) ;
#89 = PERSON_AND_ORGANIZATION ( #129, #147 ) ;
#90 = MECHANICAL_CONTEXT ( 'NONE', #48, 'mechanical' ) ;
#91 =( GEOMETRIC_REPRESENTATION_CONTEXT ( 3 ) GLOBAL_UNCERTAINTY_ASSIGNED_CONTEXT ( ( #10 ) ) GLOBAL_UNIT_ASSIGNED_CONTEXT ( ( #153, #77, #142 ) ) REPRESENTATION_CONTEXT ( 'NONE', 'WORKASPACE' ) );
#92 = APPROVAL ( #7, 'UNSPECIFIED' ) ;
#93 = ORIENTED_EDGE ( 'NONE', *, *, #125, .T. ) ;
#94 = FACE_OUTER_BOUND ( 'NONE', #72, .T. ) ;
#95 = CALENDAR_DATE ( 2018, 25, 7 ) ;
#96 = PERSON_AND_ORGANIZATION ( #129, #147 ) ;
#97 = CC_DESIGN_APPROVAL ( #92, ( #84 ) ) ;
#98 = PERSON_AND_ORGANIZATION_ROLE ( 'design_owner' ) ;
#99 = APPROVAL ( #52, 'UNSPECIFIED' ) ;
#100 = LINE ( 'NONE', #58, #169 ) ;
#101 = DIRECTION ( 'NONE',  ( -1.000000000000000000, 0.0000000000000000000, 0.0000000000000000000 ) ) ;
#102 = DIRECTION ( 'NONE',  ( 1.000000000000000000, 0.0000000000000000000, 0.0000000000000000000 ) ) ;
#103 = VERTEX_POINT ( 'NONE', #122 ) ;
#104 = CC_DESIGN_PERSON_AND_ORGANIZATION_ASSIGNMENT ( #96, #98, ( #38 ) ) ;
#105 = PLANE ( 'NONE',  #74 ) ;
#106 = DATE_AND_TIME ( #150, #56 ) ;
#107 = CARTESIAN_POINT ( 'NONE',  ( 0.0000000000000000000, 0.0000000000000000000, -0.5000000000000000000 ) ) ;
#108 = DIRECTION ( 'NONE',  ( 0.0000000000000000000, 0.0000000000000000000, 1.000000000000000000 ) ) ;
#109 = LOCAL_TIME ( 13, 11, 6.000000000000000000, #18 ) ;
#110 = CARTESIAN_POINT ( 'NONE',  ( 0.0000000000000000000, 0.0000000000000000000, 0.5000000000000000000 ) ) ;
#111 = APPLICATION_CONTEXT ( 'configuration controlled 3d designs of mechanical parts and assemblies' ) ;
#112 = ADVANCED_FACE ( 'NONE', ( #69 ), #41, .T. ) ;
#113 = APPROVAL_STATUS ( 'not_yet_approved' ) ;
#114 = ORIENTED_EDGE ( 'NONE', *, *, #27, .F. ) ;
#115 = ADVANCED_FACE ( 'NONE', ( #175 ), #136, .T. ) ;
#116 = CARTESIAN_POINT ( 'NONE',  ( 0.0000000000000000000, 0.0000000000000000000, 0.0000000000000000000 ) ) ;
#117 = APPROVAL ( #113, 'UNSPECIFIED' ) ;
#118 = AXIS2_PLACEMENT_3D ( 'NONE', #88, #30, #141 ) ;
#119 = DATE_AND_TIME ( #44, #35 ) ;
#120 = VERTEX_POINT ( 'NONE', #62 ) ;
#121 = ORIENTED_EDGE ( 'NONE', *, *, #42, .F. ) ;
#122 = CARTESIAN_POINT ( 'NONE',  ( -15.00000000000000000, 0.0000000000000000000, -0.5000000000000000000 ) ) ;
#123 = DIRECTION ( 'NONE',  ( 1.000000000000000000, 0.0000000000000000000, -0.0000000000000000000 ) ) ;
#124 = CIRCLE ( 'NONE', #172, 15.00000000000000000 ) ;
#125 = EDGE_CURVE ( 'NONE', #14, #120, #130, .T. ) ;
#126 = ADVANCED_FACE ( 'NONE', ( #3 ), #54, .T. ) ;
#127 = ORIENTED_EDGE ( 'NONE', *, *, #70, .T. ) ;
#128 = AXIS2_PLACEMENT_3D ( 'NONE', #25, #59, #75 ) ;
#129 = PERSON ( 'UNSPECIFIED', 'UNSPECIFIED', 'UNSPECIFIED', ('UNSPECIFIED'), ('UNSPECIFIED'), ('UNSPECIFIED') ) ;
#130 = LINE ( 'NONE', #45, #17 ) ;
#131 = LOCAL_TIME ( 13, 11, 6.000000000000000000, #83 ) ;
#132 = SHAPE_DEFINITION_REPRESENTATION ( #165, #144 ) ;
#133 = AXIS2_PLACEMENT_3D ( 'NONE', #4, #108, #28 ) ;
#134 = VERTEX_POINT ( 'NONE', #15 ) ;
#135 = EDGE_CURVE ( 'NONE', #134, #14, #9, .T. ) ;
#136 = PLANE ( 'NONE',  #82 ) ;
#137 = PERSON_AND_ORGANIZATION ( #129, #147 ) ;
#138 = DIRECTION ( 'NONE',  ( 0.0000000000000000000, 0.0000000000000000000, 1.000000000000000000 ) ) ;
#139 = ORIENTED_EDGE ( 'NONE', *, *, #80, .T. ) ;
#140 = DIRECTION ( 'NONE',  ( 0.0000000000000000000, 0.0000000000000000000, 1.000000000000000000 ) ) ;
#141 = DIRECTION ( 'NONE',  ( 1.000000000000000000, 0.0000000000000000000, 0.0000000000000000000 ) ) ;
#142 =( NAMED_UNIT ( * ) SI_UNIT ( $, .STERADIAN. ) SOLID_ANGLE_UNIT ( ) );
#143 = PRODUCT_RELATED_PRODUCT_CATEGORY ( 'detail', '', ( #38 ) ) ;
#144 = ADVANCED_BREP_SHAPE_REPRESENTATION ( 'Web Model 39234_39265', ( #162, #79 ), #91 ) ;
#145 = SECURITY_CLASSIFICATION_LEVEL ( 'unclassified' ) ;
#146 = PRODUCT_DEFINITION_FORMATION_WITH_SPECIFIED_SOURCE ( 'ANY', '', #38, .NOT_KNOWN. ) ;
#147 = ORGANIZATION ( 'UNSPECIFIED', 'UNSPECIFIED', '' ) ;
#148 = CC_DESIGN_APPROVAL ( #99, ( #37 ) ) ;
#149 = DATE_AND_TIME ( #95, #109 ) ;
#150 = CALENDAR_DATE ( 2018, 25, 7 ) ;
#151 = CC_DESIGN_DATE_AND_TIME_ASSIGNMENT ( #106, #157, ( #84 ) ) ;
#152 = APPROVAL_PERSON_ORGANIZATION ( #137, #117, #64 ) ;
#153 =( LENGTH_UNIT ( ) NAMED_UNIT ( * ) SI_UNIT ( .MILLI., .METRE. ) );
#154 = COORDINATED_UNIVERSAL_TIME_OFFSET ( 5, 0, .BEHIND. ) ;
#155 = CC_DESIGN_PERSON_AND_ORGANIZATION_ASSIGNMENT ( #19, #87, ( #84 ) ) ;
#156 = CC_DESIGN_SECURITY_CLASSIFICATION ( #37, ( #146 ) ) ;
#157 = DATE_TIME_ROLE ( 'creation_date' ) ;
#158 = DIRECTION ( 'NONE',  ( 0.0000000000000000000, 0.0000000000000000000, 1.000000000000000000 ) ) ;
#159 = APPROVAL_PERSON_ORGANIZATION ( #29, #99, #160 ) ;
#160 = APPROVAL_ROLE ( '' ) ;
#161 = CC_DESIGN_APPROVAL ( #117, ( #146 ) ) ;
#162 = MANIFOLD_SOLID_BREP ( 'Boss-Extrude1', #167 ) ;
#163 = COORDINATED_UNIVERSAL_TIME_OFFSET ( 5, 0, .BEHIND. ) ;
#164 = CIRCLE ( 'NONE', #133, 15.00000000000000000 ) ;
#165 = PRODUCT_DEFINITION_SHAPE ( 'NONE', 'NONE',  #84 ) ;
#166 = DIRECTION ( 'NONE',  ( -0.0000000000000000000, -0.0000000000000000000, -1.000000000000000000 ) ) ;
#167 = CLOSED_SHELL ( 'NONE', ( #126, #112, #115, #46 ) ) ;
#168 = APPROVAL_ROLE ( '' ) ;
#169 = VECTOR ( 'NONE', #21, 1000.000000000000000 ) ;
#170 = CC_DESIGN_PERSON_AND_ORGANIZATION_ASSIGNMENT ( #89, #171, ( #146 ) ) ;
#171 = PERSON_AND_ORGANIZATION_ROLE ( 'creator' ) ;
#172 = AXIS2_PLACEMENT_3D ( 'NONE', #107, #13, #43 ) ;
#173 = EDGE_LOOP ( 'NONE', ( #121, #93, #139, #114 ) ) ;
#174 = APPROVAL_DATE_TIME ( #61, #99 ) ;
#175 = FACE_OUTER_BOUND ( 'NONE', #66, .T. ) ;
ENDSEC;
END-ISO-10303-21;
