ISO-10303-21;
HEADER;
FILE_DESCRIPTION (( 'STEP AP203' ),
    '1' );
FILE_NAME ('Web Model 31411_46672.step',
    '2017-04-10T17:51:35',
    ( '' ),
    ( '' ),
    'SwSTEP 2.0',
    'SolidWorks 2016',
    '' );
FILE_SCHEMA (( 'CONFIG_CONTROL_DESIGN' ));
ENDSEC;

DATA;
#1 = DIRECTION ( 'NONE',  ( 1.000000000000000000, 0.0000000000000000000, 0.0000000000000000000 ) ) ;
#2 = CALENDAR_DATE ( 2017, 10, 4 ) ;
#3 = EDGE_CURVE ( 'NONE', #7, #170, #73, .T. ) ;
#4 = VECTOR ( 'NONE', #180, 1000.000000000000000 ) ;
#5 = ORIENTED_EDGE ( 'NONE', *, *, #75, .F. ) ;
#6 = APPROVAL_PERSON_ORGANIZATION ( #198, #160, #32 ) ;
#7 = VERTEX_POINT ( 'NONE', #61 ) ;
#8 = VECTOR ( 'NONE', #199, 1000.000000000000000 ) ;
#9 = ORIENTED_EDGE ( 'NONE', *, *, #127, .F. ) ;
#10 = CARTESIAN_POINT ( 'NONE',  ( 12.50000000000000200, 37.99999999999997900, -1.000000000000000000 ) ) ;
#11 = PERSON_AND_ORGANIZATION ( #53, #176 ) ;
#12 = CALENDAR_DATE ( 2017, 10, 4 ) ;
#13 = LOCAL_TIME ( 13, 51, 35.00000000000000000, #121 ) ;
#14 = APPROVAL_PERSON_ORGANIZATION ( #147, #59, #146 ) ;
#15 = CARTESIAN_POINT ( 'NONE',  ( 12.50000000000000200, 37.99999999999997900, -1.000000000000000000 ) ) ;
#16 = CC_DESIGN_APPROVAL ( #214, ( #125 ) ) ;
#17 = ORIENTED_EDGE ( 'NONE', *, *, #138, .F. ) ;
#18 = DIRECTION ( 'NONE',  ( -0.0000000000000000000, 0.0000000000000000000, 1.000000000000000000 ) ) ;
#19 = DATE_AND_TIME ( #12, #13 ) ;
#20 = VERTEX_POINT ( 'NONE', #223 ) ;
#21 = DIRECTION ( 'NONE',  ( 0.0000000000000000000, 1.000000000000000000, 0.0000000000000000000 ) ) ;
#22 = MANIFOLD_SOLID_BREP ( 'Boss-Extrude1', #122 ) ;
#23 = AXIS2_PLACEMENT_3D ( 'NONE', #98, #142, #174 ) ;
#24 = ORIENTED_EDGE ( 'NONE', *, *, #178, .T. ) ;
#25 = EDGE_LOOP ( 'NONE', ( #186, #117, #220, #201 ) ) ;
#26 = DIRECTION ( 'NONE',  ( 1.000000000000000000, 1.369518533665900300E-016, -0.0000000000000000000 ) ) ;
#27 = APPLICATION_PROTOCOL_DEFINITION ( 'international standard', 'config_control_design', 1994, #137 ) ;
#28 = COORDINATED_UNIVERSAL_TIME_OFFSET ( 5, 0, .BEHIND. ) ;
#29 = CARTESIAN_POINT ( 'NONE',  ( 12.50000000000001600, -38.00000000000002100, 1.000000000000000000 ) ) ;
#30 = EDGE_CURVE ( 'NONE', #20, #183, #120, .T. ) ;
#31 = LINE ( 'NONE', #155, #58 ) ;
#32 = APPROVAL_ROLE ( '' ) ;
#33 = DIRECTION ( 'NONE',  ( 1.369518533665900300E-016, -1.000000000000000000, 0.0000000000000000000 ) ) ;
#34 = APPROVAL_DATE_TIME ( #229, #59 ) ;
#35 = LINE ( 'NONE', #225, #43 ) ;
#36 = CC_DESIGN_PERSON_AND_ORGANIZATION_ASSIGNMENT ( #135, #206, ( #109 ) ) ;
#37 = APPROVAL_STATUS ( 'not_yet_approved' ) ;
#38 = ORIENTED_EDGE ( 'NONE', *, *, #190, .T. ) ;
#39 = ORIENTED_EDGE ( 'NONE', *, *, #149, .T. ) ;
#40 = DATE_AND_TIME ( #2, #209 ) ;
#41 = ADVANCED_FACE ( 'NONE', ( #45 ), #187, .F. ) ;
#42 = PERSON_AND_ORGANIZATION_ROLE ( 'classification_officer' ) ;
#43 = VECTOR ( 'NONE', #102, 1000.000000000000000 ) ;
#44 = PLANE ( 'NONE',  #23 ) ;
#45 = FACE_OUTER_BOUND ( 'NONE', #226, .T. ) ;
#46 = DIRECTION ( 'NONE',  ( 0.0000000000000000000, 0.0000000000000000000, 1.000000000000000000 ) ) ;
#47 = ORIENTED_EDGE ( 'NONE', *, *, #3, .F. ) ;
#48 = ORIENTED_EDGE ( 'NONE', *, *, #133, .T. ) ;
#49 = PRODUCT_RELATED_PRODUCT_CATEGORY ( 'detail', '', ( #84 ) ) ;
#50 = PERSON_AND_ORGANIZATION ( #53, #176 ) ;
#51 = SECURITY_CLASSIFICATION_LEVEL ( 'unclassified' ) ;
#52 = CARTESIAN_POINT ( 'NONE',  ( 0.0000000000000000000, 0.0000000000000000000, -1.000000000000000000 ) ) ;
#53 = PERSON ( 'UNSPECIFIED', 'UNSPECIFIED', 'UNSPECIFIED', ('UNSPECIFIED'), ('UNSPECIFIED'), ('UNSPECIFIED') ) ;
#54 = MECHANICAL_CONTEXT ( 'NONE', #137, 'mechanical' ) ;
#55 = LOCAL_TIME ( 13, 51, 35.00000000000000000, #114 ) ;
#56 = VECTOR ( 'NONE', #33, 1000.000000000000000 ) ;
#57 = EDGE_LOOP ( 'NONE', ( #39, #5, #164, #141 ) ) ;
#58 = VECTOR ( 'NONE', #237, 1000.000000000000000 ) ;
#59 = APPROVAL ( #93, 'UNSPECIFIED' ) ;
#60 = CARTESIAN_POINT ( 'NONE',  ( -12.49999999999998900, -38.00000000000002100, 1.000000000000000000 ) ) ;
#61 = CARTESIAN_POINT ( 'NONE',  ( 12.50000000000000200, 37.99999999999997900, 1.000000000000000000 ) ) ;
#62 = ADVANCED_FACE ( 'NONE', ( #152 ), #86, .F. ) ;
#63 = LINE ( 'NONE', #165, #78 ) ;
#64 = DIRECTION ( 'NONE',  ( 1.000000000000000000, 0.0000000000000000000, 0.0000000000000000000 ) ) ;
#65 = EDGE_CURVE ( 'NONE', #20, #7, #63, .T. ) ;
#66 = DIRECTION ( 'NONE',  ( 0.0000000000000000000, -0.0000000000000000000, 1.000000000000000000 ) ) ;
#67 = FACE_OUTER_BOUND ( 'NONE', #161, .T. ) ;
#68 =( GEOMETRIC_REPRESENTATION_CONTEXT ( 3 ) GLOBAL_UNCERTAINTY_ASSIGNED_CONTEXT ( ( #169 ) ) GLOBAL_UNIT_ASSIGNED_CONTEXT ( ( #105, #200, #171 ) ) REPRESENTATION_CONTEXT ( 'NONE', 'WORKASPACE' ) );
#69 = CALENDAR_DATE ( 2017, 10, 4 ) ;
#70 = CALENDAR_DATE ( 2017, 10, 4 ) ;
#71 = LINE ( 'NONE', #72, #94 ) ;
#72 = CARTESIAN_POINT ( 'NONE',  ( -12.49999999999999800, 37.99999999999997900, 1.000000000000000000 ) ) ;
#73 = LINE ( 'NONE', #219, #4 ) ;
#74 = DATE_TIME_ROLE ( 'classification_date' ) ;
#75 = EDGE_CURVE ( 'NONE', #213, #97, #130, .T. ) ;
#76 = PERSON_AND_ORGANIZATION_ROLE ( 'design_owner' ) ;
#77 = DIRECTION ( 'NONE',  ( 1.826024711554533900E-016, -1.000000000000000000, 0.0000000000000000000 ) ) ;
#78 = VECTOR ( 'NONE', #111, 1000.000000000000000 ) ;
#79 = CC_DESIGN_SECURITY_CLASSIFICATION ( #235, ( #125 ) ) ;
#80 = COORDINATED_UNIVERSAL_TIME_OFFSET ( 5, 0, .BEHIND. ) ;
#81 = PERSON_AND_ORGANIZATION ( #53, #176 ) ;
#82 = CARTESIAN_POINT ( 'NONE',  ( -12.49999999999999800, 37.99999999999997900, 1.000000000000000000 ) ) ;
#83 = PERSON_AND_ORGANIZATION ( #53, #176 ) ;
#84 = PRODUCT ( 'Web Model 31411_46672', 'Web Model 31411_46672', '', ( #54 ) ) ;
#85 = LINE ( 'NONE', #217, #166 ) ;
#86 = PLANE ( 'NONE',  #196 ) ;
#87 = APPROVAL_DATE_TIME ( #40, #214 ) ;
#88 = AXIS2_PLACEMENT_3D ( 'NONE', #52, #18, #124 ) ;
#89 = LINE ( 'NONE', #15, #100 ) ;
#90 = CARTESIAN_POINT ( 'NONE',  ( -12.49999999999998900, -38.00000000000002100, -1.000000000000000000 ) ) ;
#91 = CC_DESIGN_DATE_AND_TIME_ASSIGNMENT ( #19, #228, ( #109 ) ) ;
#92 = EDGE_CURVE ( 'NONE', #183, #208, #89, .T. ) ;
#93 = APPROVAL_STATUS ( 'not_yet_approved' ) ;
#94 = VECTOR ( 'NONE', #167, 1000.000000000000000 ) ;
#95 = APPROVAL_PERSON_ORGANIZATION ( #81, #214, #99 ) ;
#96 = ORIENTED_EDGE ( 'NONE', *, *, #178, .F. ) ;
#97 = VERTEX_POINT ( 'NONE', #90 ) ;
#98 = CARTESIAN_POINT ( 'NONE',  ( -12.49999999999999800, 37.99999999999997900, 1.000000000000000000 ) ) ;
#99 = APPROVAL_ROLE ( '' ) ;
#100 = VECTOR ( 'NONE', #233, 1000.000000000000000 ) ;
#101 = CARTESIAN_POINT ( 'NONE',  ( 12.50000000000001600, -38.00000000000002100, -1.000000000000000000 ) ) ;
#102 = DIRECTION ( 'NONE',  ( -1.000000000000000000, -0.0000000000000000000, -0.0000000000000000000 ) ) ;
#103 = DIRECTION ( 'NONE',  ( 1.000000000000000000, 0.0000000000000000000, 0.0000000000000000000 ) ) ;
#104 = VERTEX_POINT ( 'NONE', #157 ) ;
#105 =( LENGTH_UNIT ( ) NAMED_UNIT ( * ) SI_UNIT ( .MILLI., .METRE. ) );
#106 = ORIENTED_EDGE ( 'NONE', *, *, #236, .T. ) ;
#107 = VECTOR ( 'NONE', #134, 1000.000000000000000 ) ;
#108 = LOCAL_TIME ( 13, 51, 35.00000000000000000, #150 ) ;
#109 = PRODUCT_DEFINITION ( 'UNKNOWN', '', #125, #222 ) ;
#110 = CARTESIAN_POINT ( 'NONE',  ( -12.49999999999998900, -38.00000000000002100, 1.000000000000000000 ) ) ;
#111 = DIRECTION ( 'NONE',  ( -1.826024711554533900E-016, 1.000000000000000000, -0.0000000000000000000 ) ) ;
#112 = CC_DESIGN_PERSON_AND_ORGANIZATION_ASSIGNMENT ( #126, #76, ( #84 ) ) ;
#113 = CARTESIAN_POINT ( 'NONE',  ( -12.49999999999998900, -38.00000000000002100, -1.000000000000000000 ) ) ;
#114 = COORDINATED_UNIVERSAL_TIME_OFFSET ( 5, 0, .BEHIND. ) ;
#115 = CARTESIAN_POINT ( 'NONE',  ( 0.0000000000000000000, 0.0000000000000000000, 0.0000000000000000000 ) ) ;
#116 = AXIS2_PLACEMENT_3D ( 'NONE', #162, #139, #77 ) ;
#117 = ORIENTED_EDGE ( 'NONE', *, *, #190, .F. ) ;
#118 = SHAPE_DEFINITION_REPRESENTATION ( #140, #119 ) ;
#119 = ADVANCED_BREP_SHAPE_REPRESENTATION ( 'Web Model 31411_46672', ( #22, #211 ), #68 ) ;
#120 = LINE ( 'NONE', #29, #8 ) ;
#121 = COORDINATED_UNIVERSAL_TIME_OFFSET ( 5, 0, .BEHIND. ) ;
#122 = CLOSED_SHELL ( 'NONE', ( #136, #221, #224, #62, #181, #41 ) ) ;
#123 = EDGE_LOOP ( 'NONE', ( #218, #153, #205, #168 ) ) ;
#124 = DIRECTION ( 'NONE',  ( 1.000000000000000000, 0.0000000000000000000, 0.0000000000000000000 ) ) ;
#125 = PRODUCT_DEFINITION_FORMATION_WITH_SPECIFIED_SOURCE ( 'ANY', '', #84, .NOT_KNOWN. ) ;
#126 = PERSON_AND_ORGANIZATION ( #53, #176 ) ;
#127 = EDGE_CURVE ( 'NONE', #97, #183, #202, .T. ) ;
#128 = APPLICATION_PROTOCOL_DEFINITION ( 'international standard', 'config_control_design', 1994, #148 ) ;
#129 = DIRECTION ( 'NONE',  ( 1.369518533665900300E-016, -1.000000000000000000, 0.0000000000000000000 ) ) ;
#130 = LINE ( 'NONE', #159, #158 ) ;
#131 = DIRECTION ( 'NONE',  ( -1.369518533665900300E-016, 1.000000000000000000, 0.0000000000000000000 ) ) ;
#132 = ORIENTED_EDGE ( 'NONE', *, *, #65, .T. ) ;
#133 = EDGE_CURVE ( 'NONE', #170, #213, #216, .T. ) ;
#134 = DIRECTION ( 'NONE',  ( 1.000000000000000000, 0.0000000000000000000, 0.0000000000000000000 ) ) ;
#135 = PERSON_AND_ORGANIZATION ( #53, #176 ) ;
#136 = ADVANCED_FACE ( 'NONE', ( #172 ), #215, .F. ) ;
#137 = APPLICATION_CONTEXT ( 'configuration controlled 3d designs of mechanical parts and assemblies' ) ;
#138 = EDGE_CURVE ( 'NONE', #170, #104, #71, .T. ) ;
#139 = DIRECTION ( 'NONE',  ( -1.000000000000000000, -1.826024711554533900E-016, 0.0000000000000000000 ) ) ;
#140 = PRODUCT_DEFINITION_SHAPE ( 'NONE', 'NONE',  #109 ) ;
#141 = ORIENTED_EDGE ( 'NONE', *, *, #138, .T. ) ;
#142 = DIRECTION ( 'NONE',  ( 0.0000000000000000000, -1.000000000000000000, 0.0000000000000000000 ) ) ;
#143 = APPROVAL_STATUS ( 'not_yet_approved' ) ;
#144 = CC_DESIGN_APPROVAL ( #59, ( #109 ) ) ;
#145 = CALENDAR_DATE ( 2017, 10, 4 ) ;
#146 = APPROVAL_ROLE ( '' ) ;
#147 = PERSON_AND_ORGANIZATION ( #53, #176 ) ;
#148 = APPLICATION_CONTEXT ( 'configuration controlled 3d designs of mechanical parts and assemblies' ) ;
#149 = EDGE_CURVE ( 'NONE', #104, #97, #85, .T. ) ;
#150 = COORDINATED_UNIVERSAL_TIME_OFFSET ( 5, 0, .BEHIND. ) ;
#151 = ORIENTED_EDGE ( 'NONE', *, *, #92, .F. ) ;
#152 = FACE_OUTER_BOUND ( 'NONE', #123, .T. ) ;
#153 = ORIENTED_EDGE ( 'NONE', *, *, #30, .F. ) ;
#154 = DIRECTION ( 'NONE',  ( -0.0000000000000000000, 0.0000000000000000000, 1.000000000000000000 ) ) ;
#155 = CARTESIAN_POINT ( 'NONE',  ( 12.50000000000000200, 37.99999999999997900, 1.000000000000000000 ) ) ;
#156 = CC_DESIGN_APPROVAL ( #160, ( #235 ) ) ;
#157 = CARTESIAN_POINT ( 'NONE',  ( -12.49999999999999800, 37.99999999999997900, -1.000000000000000000 ) ) ;
#158 = VECTOR ( 'NONE', #173, 1000.000000000000000 ) ;
#159 = CARTESIAN_POINT ( 'NONE',  ( -12.49999999999998900, -38.00000000000002100, 1.000000000000000000 ) ) ;
#160 = APPROVAL ( #37, 'UNSPECIFIED' ) ;
#161 = EDGE_LOOP ( 'NONE', ( #132, #188, #48, #106 ) ) ;
#162 = CARTESIAN_POINT ( 'NONE',  ( 12.50000000000000200, 37.99999999999997900, 1.000000000000000000 ) ) ;
#163 = CARTESIAN_POINT ( 'NONE',  ( 0.0000000000000000000, 0.0000000000000000000, 1.000000000000000000 ) ) ;
#164 = ORIENTED_EDGE ( 'NONE', *, *, #133, .F. ) ;
#165 = CARTESIAN_POINT ( 'NONE',  ( 12.50000000000000200, 37.99999999999997900, 1.000000000000000000 ) ) ;
#166 = VECTOR ( 'NONE', #129, 1000.000000000000000 ) ;
#167 = DIRECTION ( 'NONE',  ( -0.0000000000000000000, -0.0000000000000000000, -1.000000000000000000 ) ) ;
#168 = ORIENTED_EDGE ( 'NONE', *, *, #75, .T. ) ;
#169 = UNCERTAINTY_MEASURE_WITH_UNIT (LENGTH_MEASURE( 1.000000000000000100E-005 ), #105, 'distance_accuracy_value', 'NONE');
#170 = VERTEX_POINT ( 'NONE', #82 ) ;
#171 =( NAMED_UNIT ( * ) SI_UNIT ( $, .STERADIAN. ) SOLID_ANGLE_UNIT ( ) );
#172 = FACE_OUTER_BOUND ( 'NONE', #25, .T. ) ;
#173 = DIRECTION ( 'NONE',  ( -0.0000000000000000000, -0.0000000000000000000, -1.000000000000000000 ) ) ;
#174 = DIRECTION ( 'NONE',  ( 0.0000000000000000000, -0.0000000000000000000, -1.000000000000000000 ) ) ;
#175 = AXIS2_PLACEMENT_3D ( 'NONE', #163, #154, #103 ) ;
#176 = ORGANIZATION ( 'UNSPECIFIED', 'UNSPECIFIED', '' ) ;
#177 = CC_DESIGN_PERSON_AND_ORGANIZATION_ASSIGNMENT ( #83, #192, ( #125 ) ) ;
#178 = EDGE_CURVE ( 'NONE', #208, #104, #35, .T. ) ;
#179 = DATE_AND_TIME ( #69, #108 ) ;
#180 = DIRECTION ( 'NONE',  ( -1.000000000000000000, -0.0000000000000000000, -0.0000000000000000000 ) ) ;
#181 = ADVANCED_FACE ( 'NONE', ( #67 ), #194, .T. ) ;
#182 = VECTOR ( 'NONE', #64, 1000.000000000000000 ) ;
#183 = VERTEX_POINT ( 'NONE', #101 ) ;
#184 = LINE ( 'NONE', #60, #182 ) ;
#185 = CC_DESIGN_PERSON_AND_ORGANIZATION_ASSIGNMENT ( #11, #227, ( #125 ) ) ;
#186 = ORIENTED_EDGE ( 'NONE', *, *, #92, .T. ) ;
#187 = PLANE ( 'NONE',  #88 ) ;
#188 = ORIENTED_EDGE ( 'NONE', *, *, #3, .T. ) ;
#189 = FACE_OUTER_BOUND ( 'NONE', #57, .T. ) ;
#190 = EDGE_CURVE ( 'NONE', #7, #208, #31, .T. ) ;
#191 = EDGE_LOOP ( 'NONE', ( #24, #17, #47, #38 ) ) ;
#192 = PERSON_AND_ORGANIZATION_ROLE ( 'creator' ) ;
#193 = DATE_AND_TIME ( #70, #210 ) ;
#194 = PLANE ( 'NONE',  #175 ) ;
#195 = CC_DESIGN_DATE_AND_TIME_ASSIGNMENT ( #193, #74, ( #235 ) ) ;
#196 = AXIS2_PLACEMENT_3D ( 'NONE', #232, #21, #66 ) ;
#197 = PLANE ( 'NONE',  #230 ) ;
#198 = PERSON_AND_ORGANIZATION ( #53, #176 ) ;
#199 = DIRECTION ( 'NONE',  ( -0.0000000000000000000, -0.0000000000000000000, -1.000000000000000000 ) ) ;
#200 =( NAMED_UNIT ( * ) PLANE_ANGLE_UNIT ( ) SI_UNIT ( $, .RADIAN. ) );
#201 = ORIENTED_EDGE ( 'NONE', *, *, #30, .T. ) ;
#202 = LINE ( 'NONE', #113, #107 ) ;
#203 = ORIENTED_EDGE ( 'NONE', *, *, #149, .F. ) ;
#204 = CARTESIAN_POINT ( 'NONE',  ( -12.49999999999999800, 37.99999999999997900, 1.000000000000000000 ) ) ;
#205 = ORIENTED_EDGE ( 'NONE', *, *, #236, .F. ) ;
#206 = PERSON_AND_ORGANIZATION_ROLE ( 'creator' ) ;
#207 = CC_DESIGN_PERSON_AND_ORGANIZATION_ASSIGNMENT ( #50, #42, ( #235 ) ) ;
#208 = VERTEX_POINT ( 'NONE', #10 ) ;
#209 = LOCAL_TIME ( 13, 51, 35.00000000000000000, #80 ) ;
#210 = LOCAL_TIME ( 13, 51, 35.00000000000000000, #28 ) ;
#211 = AXIS2_PLACEMENT_3D ( 'NONE', #115, #46, #1 ) ;
#212 = CARTESIAN_POINT ( 'NONE',  ( -12.49999999999999800, 37.99999999999997900, 1.000000000000000000 ) ) ;
#213 = VERTEX_POINT ( 'NONE', #110 ) ;
#214 = APPROVAL ( #143, 'UNSPECIFIED' ) ;
#215 = PLANE ( 'NONE',  #116 ) ;
#216 = LINE ( 'NONE', #204, #56 ) ;
#217 = CARTESIAN_POINT ( 'NONE',  ( -12.49999999999999800, 37.99999999999997900, -1.000000000000000000 ) ) ;
#218 = ORIENTED_EDGE ( 'NONE', *, *, #127, .T. ) ;
#219 = CARTESIAN_POINT ( 'NONE',  ( -12.49999999999999800, 37.99999999999997900, 1.000000000000000000 ) ) ;
#220 = ORIENTED_EDGE ( 'NONE', *, *, #65, .F. ) ;
#221 = ADVANCED_FACE ( 'NONE', ( #234 ), #44, .F. ) ;
#222 = DESIGN_CONTEXT ( 'detailed design', #148, 'design' ) ;
#223 = CARTESIAN_POINT ( 'NONE',  ( 12.50000000000001600, -38.00000000000002100, 1.000000000000000000 ) ) ;
#224 = ADVANCED_FACE ( 'NONE', ( #189 ), #197, .F. ) ;
#225 = CARTESIAN_POINT ( 'NONE',  ( -12.49999999999999800, 37.99999999999997900, -1.000000000000000000 ) ) ;
#226 = EDGE_LOOP ( 'NONE', ( #151, #9, #203, #96 ) ) ;
#227 = PERSON_AND_ORGANIZATION_ROLE ( 'design_supplier' ) ;
#228 = DATE_TIME_ROLE ( 'creation_date' ) ;
#229 = DATE_AND_TIME ( #145, #55 ) ;
#230 = AXIS2_PLACEMENT_3D ( 'NONE', #212, #26, #131 ) ;
#231 = APPROVAL_DATE_TIME ( #179, #160 ) ;
#232 = CARTESIAN_POINT ( 'NONE',  ( -12.49999999999998900, -38.00000000000002100, 1.000000000000000000 ) ) ;
#233 = DIRECTION ( 'NONE',  ( -1.826024711554533900E-016, 1.000000000000000000, -0.0000000000000000000 ) ) ;
#234 = FACE_OUTER_BOUND ( 'NONE', #191, .T. ) ;
#235 = SECURITY_CLASSIFICATION ( '', '', #51 ) ;
#236 = EDGE_CURVE ( 'NONE', #213, #20, #184, .T. ) ;
#237 = DIRECTION ( 'NONE',  ( -0.0000000000000000000, -0.0000000000000000000, -1.000000000000000000 ) ) ;
ENDSEC;
END-ISO-10303-21;
