ISO-10303-21;
HEADER;
FILE_DESCRIPTION (( 'STEP AP203' ),
    '1' );
FILE_NAME ('step_47236.step',
    '2014-06-12T17:57:51',
    ( '' ),
    ( '' ),
    'SwSTEP 2.0',
    'SolidWorks 2014',
    '' );
FILE_SCHEMA (( 'CONFIG_CONTROL_DESIGN' ));
ENDSEC;

DATA;
#1 = SECURITY_CLASSIFICATION_LEVEL ( 'unclassified' ) ;
#2 = VECTOR ( 'NONE', #164, 1000.000000000000000 ) ;
#3 = EDGE_CURVE ( 'NONE', #195, #299, #23, .T. ) ;
#4 = VERTEX_POINT ( 'NONE', #287 ) ;
#5 = PERSON_AND_ORGANIZATION_ROLE ( 'design_supplier' ) ;
#6 = LINE ( 'NONE', #314, #55 ) ;
#7 = ORIENTED_EDGE ( 'NONE', *, *, #157, .T. ) ;
#8 = PERSON_AND_ORGANIZATION_ROLE ( 'creator' ) ;
#9 = APPROVAL_DATE_TIME ( #72, #67 ) ;
#10 = APPROVAL_ROLE ( '' ) ;
#11 = ORIENTED_EDGE ( 'NONE', *, *, #150, .T. ) ;
#12 = APPROVAL_STATUS ( 'not_yet_approved' ) ;
#13 = DATE_TIME_ROLE ( 'creation_date' ) ;
#14 = EDGE_CURVE ( 'NONE', #288, #108, #154, .T. ) ;
#15 = CALENDAR_DATE ( 2014, 12, 6 ) ;
#16 = VECTOR ( 'NONE', #263, 1000.000000000000000 ) ;
#17 = AXIS2_PLACEMENT_3D ( 'NONE', #274, #261, #255 ) ;
#18 = ORIENTED_EDGE ( 'NONE', *, *, #175, .T. ) ;
#19 = PERSON_AND_ORGANIZATION_ROLE ( 'creator' ) ;
#20 = APPROVAL_ROLE ( '' ) ;
#21 = EDGE_CURVE ( 'NONE', #254, #38, #117, .T. ) ;
#22 = ADVANCED_FACE ( 'NONE', ( #304 ), #196, .F. ) ;
#23 = LINE ( 'NONE', #269, #59 ) ;
#24 = APPROVAL_STATUS ( 'not_yet_approved' ) ;
#25 = APPLICATION_PROTOCOL_DEFINITION ( 'international standard', 'config_control_design', 1994, #31 ) ;
#26 = AXIS2_PLACEMENT_3D ( 'NONE', #177, #174, #173 ) ;
#27 = CALENDAR_DATE ( 2014, 12, 6 ) ;
#28 = LINE ( 'NONE', #207, #169 ) ;
#29 = EDGE_LOOP ( 'NONE', ( #109, #64, #57 ) ) ;
#30 = EDGE_LOOP ( 'NONE', ( #172, #186, #210, #70 ) ) ;
#31 = APPLICATION_CONTEXT ( 'configuration controlled 3d designs of mechanical parts and assemblies' ) ;
#32 = EDGE_CURVE ( 'NONE', #199, #299, #231, .T. ) ;
#33 = FACE_OUTER_BOUND ( 'NONE', #30, .T. ) ;
#34 = PERSON_AND_ORGANIZATION_ROLE ( 'design_owner' ) ;
#35 = EDGE_LOOP ( 'NONE', ( #258, #119, #271, #163 ) ) ;
#36 = PERSON_AND_ORGANIZATION ( #313, #102 ) ;
#37 = MECHANICAL_CONTEXT ( 'NONE', #41, 'mechanical' ) ;
#38 = VERTEX_POINT ( 'NONE', #180 ) ;
#39 = ORIENTED_EDGE ( 'NONE', *, *, #21, .F. ) ;
#40 = DIRECTION ( 'NONE',  ( 1.000000000000000000, 0.0000000000000000000, 0.0000000000000000000 ) ) ;
#41 = APPLICATION_CONTEXT ( 'configuration controlled 3d designs of mechanical parts and assemblies' ) ;
#42 = VECTOR ( 'NONE', #183, 1000.000000000000000 ) ;
#43 = EDGE_LOOP ( 'NONE', ( #18, #226, #301, #144 ) ) ;
#44 = APPLICATION_PROTOCOL_DEFINITION ( 'international standard', 'config_control_design', 1994, #41 ) ;
#45 = COORDINATED_UNIVERSAL_TIME_OFFSET ( 7, 0, .BEHIND. ) ;
#46 = PRODUCT_RELATED_PRODUCT_CATEGORY ( 'detail', '', ( #294 ) ) ;
#47 = LINE ( 'NONE', #182, #300 ) ;
#48 = DATE_TIME_ROLE ( 'classification_date' ) ;
#49 =( NAMED_UNIT ( * ) SI_UNIT ( $, .STERADIAN. ) SOLID_ANGLE_UNIT ( ) );
#50 =( NAMED_UNIT ( * ) PLANE_ANGLE_UNIT ( ) SI_UNIT ( $, .RADIAN. ) );
#51 = VECTOR ( 'NONE', #265, 1000.000000000000000 ) ;
#52 = ADVANCED_FACE ( 'NONE', ( #176 ), #97, .F. ) ;
#53 = CALENDAR_DATE ( 2014, 12, 6 ) ;
#54 =( LENGTH_UNIT ( ) NAMED_UNIT ( * ) SI_UNIT ( .MILLI., .METRE. ) );
#55 = VECTOR ( 'NONE', #295, 1000.000000000000000 ) ;
#56 = EDGE_CURVE ( 'NONE', #194, #38, #239, .T. ) ;
#57 = ORIENTED_EDGE ( 'NONE', *, *, #114, .F. ) ;
#58 = CC_DESIGN_SECURITY_CLASSIFICATION ( #88, ( #120 ) ) ;
#59 = VECTOR ( 'NONE', #234, 1000.000000000000000 ) ;
#60 = ORIENTED_EDGE ( 'NONE', *, *, #143, .F. ) ;
#61 = EDGE_CURVE ( 'NONE', #194, #288, #123, .T. ) ;
#62 = CC_DESIGN_APPROVAL ( #67, ( #88 ) ) ;
#63 = CARTESIAN_POINT ( 'NONE',  ( 0.0000000000000000000, 0.0000000000000000000, 25.00000000000000000 ) ) ;
#64 = ORIENTED_EDGE ( 'NONE', *, *, #139, .F. ) ;
#65 = ADVANCED_BREP_SHAPE_REPRESENTATION ( 'step_47236', ( #260, #277, #319 ), #306 ) ;
#66 = CARTESIAN_POINT ( 'NONE',  ( 0.0000000000000000000, 0.0000000000000000000, 0.0000000000000000000 ) ) ;
#67 = APPROVAL ( #130, 'UNSPECIFIED' ) ;
#68 = VECTOR ( 'NONE', #240, 1000.000000000000100 ) ;
#69 = DIRECTION ( 'NONE',  ( -0.0000000000000000000, -0.0000000000000000000, -1.000000000000000000 ) ) ;
#70 = ORIENTED_EDGE ( 'NONE', *, *, #165, .T. ) ;
#71 = VERTEX_POINT ( 'NONE', #308 ) ;
#72 = DATE_AND_TIME ( #316, #297 ) ;
#73 = CC_DESIGN_DATE_AND_TIME_ASSIGNMENT ( #129, #48, ( #88 ) ) ;
#74 = DIRECTION ( 'NONE',  ( -0.7071067811865474600, 0.7071067811865474600, 0.0000000000000000000 ) ) ;
#75 = DIRECTION ( 'NONE',  ( 0.0000000000000000000, -0.0000000000000000000, 1.000000000000000000 ) ) ;
#76 = APPROVAL_PERSON_ORGANIZATION ( #84, #200, #20 ) ;
#77 = CC_DESIGN_PERSON_AND_ORGANIZATION_ASSIGNMENT ( #197, #80, ( #88 ) ) ;
#78 = DIRECTION ( 'NONE',  ( 0.0000000000000000000, 1.000000000000000000, 0.0000000000000000000 ) ) ;
#79 = ORIENTED_EDGE ( 'NONE', *, *, #139, .T. ) ;
#80 = PERSON_AND_ORGANIZATION_ROLE ( 'classification_officer' ) ;
#81 = EDGE_CURVE ( 'NONE', #71, #194, #106, .T. ) ;
#82 = CARTESIAN_POINT ( 'NONE',  ( 0.0000000000000000000, 0.0000000000000000000, 25.00000000000000000 ) ) ;
#83 = CARTESIAN_POINT ( 'NONE',  ( -2.449293598294706500E-015, 25.00000000000000000, 0.0000000000000000000 ) ) ;
#84 = PERSON_AND_ORGANIZATION ( #313, #102 ) ;
#85 = CARTESIAN_POINT ( 'NONE',  ( 0.0000000000000000000, 0.0000000000000000000, 25.00000000000000000 ) ) ;
#86 = FACE_OUTER_BOUND ( 'NONE', #253, .T. ) ;
#87 = DIRECTION ( 'NONE',  ( 1.000000000000000000, 0.0000000000000000000, 0.0000000000000000000 ) ) ;
#88 = SECURITY_CLASSIFICATION ( '', '', #1 ) ;
#89 = FACE_OUTER_BOUND ( 'NONE', #43, .T. ) ;
#90 = PLANE ( 'NONE',  #315 ) ;
#91 = CC_DESIGN_PERSON_AND_ORGANIZATION_ASSIGNMENT ( #224, #5, ( #120 ) ) ;
#92 = DIRECTION ( 'NONE',  ( -1.000000000000000000, 0.0000000000000000000, 0.0000000000000000000 ) ) ;
#93 = DIRECTION ( 'NONE',  ( 0.0000000000000000000, 0.0000000000000000000, -1.000000000000000000 ) ) ;
#94 = PERSON_AND_ORGANIZATION ( #313, #102 ) ;
#95 = CARTESIAN_POINT ( 'NONE',  ( 25.00000000000000000, 0.0000000000000000000, 25.00000000000000000 ) ) ;
#96 = ORIENTED_EDGE ( 'NONE', *, *, #157, .F. ) ;
#97 = PLANE ( 'NONE',  #264 ) ;
#98 = ORIENTED_EDGE ( 'NONE', *, *, #14, .T. ) ;
#99 = CARTESIAN_POINT ( 'NONE',  ( 25.00000000000000000, 25.00000000000000400, 25.00000000000000000 ) ) ;
#100 = EDGE_CURVE ( 'NONE', #275, #195, #6, .T. ) ;
#101 = CC_DESIGN_PERSON_AND_ORGANIZATION_ASSIGNMENT ( #212, #8, ( #120 ) ) ;
#102 = ORGANIZATION ( 'UNSPECIFIED', 'UNSPECIFIED', '' ) ;
#103 = DIRECTION ( 'NONE',  ( 0.0000000000000000000, 0.0000000000000000000, 1.000000000000000000 ) ) ;
#104 = PLANE ( 'NONE',  #296 ) ;
#105 = DIRECTION ( 'NONE',  ( -9.797174393178827400E-017, 1.000000000000000000, 0.0000000000000000000 ) ) ;
#106 = LINE ( 'NONE', #303, #310 ) ;
#107 = EDGE_CURVE ( 'NONE', #275, #199, #47, .T. ) ;
#108 = VERTEX_POINT ( 'NONE', #290 ) ;
#109 = ORIENTED_EDGE ( 'NONE', *, *, #32, .F. ) ;
#110 = ADVANCED_FACE ( 'NONE', ( #191 ), #280, .F. ) ;
#111 = DIRECTION ( 'NONE',  ( 1.000000000000000000, 9.797174393178827400E-017, -0.0000000000000000000 ) ) ;
#112 = APPROVAL_PERSON_ORGANIZATION ( #161, #67, #227 ) ;
#113 = VECTOR ( 'NONE', #242, 1000.000000000000100 ) ;
#114 = EDGE_CURVE ( 'NONE', #299, #4, #312, .T. ) ;
#115 = ORIENTED_EDGE ( 'NONE', *, *, #118, .T. ) ;
#116 = CARTESIAN_POINT ( 'NONE',  ( -2.449293598294706500E-015, 25.00000000000000000, 25.00000000000000000 ) ) ;
#117 = LINE ( 'NONE', #268, #51 ) ;
#118 = EDGE_CURVE ( 'NONE', #189, #4, #244, .T. ) ;
#119 = ORIENTED_EDGE ( 'NONE', *, *, #118, .F. ) ;
#120 = PRODUCT_DEFINITION_FORMATION_WITH_SPECIFIED_SOURCE ( 'ANY', '', #294, .NOT_KNOWN. ) ;
#121 = COORDINATED_UNIVERSAL_TIME_OFFSET ( 7, 0, .BEHIND. ) ;
#122 = DIRECTION ( 'NONE',  ( 0.7071067811865475700, 0.7071067811865475700, -0.0000000000000000000 ) ) ;
#123 = LINE ( 'NONE', #82, #131 ) ;
#124 = ORIENTED_EDGE ( 'NONE', *, *, #32, .T. ) ;
#125 = CARTESIAN_POINT ( 'NONE',  ( -2.449293598294706500E-015, 25.00000000000000000, 0.0000000000000000000 ) ) ;
#126 = DIRECTION ( 'NONE',  ( 1.000000000000000000, 1.387778780781445400E-016, 0.0000000000000000000 ) ) ;
#127 = ORIENTED_EDGE ( 'NONE', *, *, #143, .T. ) ;
#128 = EDGE_CURVE ( 'NONE', #195, #189, #135, .T. ) ;
#129 = DATE_AND_TIME ( #273, #152 ) ;
#130 = APPROVAL_STATUS ( 'not_yet_approved' ) ;
#131 = VECTOR ( 'NONE', #87, 1000.000000000000000 ) ;
#132 = DIRECTION ( 'NONE',  ( 1.387778780781445400E-016, -1.000000000000000000, 0.0000000000000000000 ) ) ;
#133 = CARTESIAN_POINT ( 'NONE',  ( 0.0000000000000000000, 0.0000000000000000000, 0.0000000000000000000 ) ) ;
#134 = PLANE ( 'NONE',  #282 ) ;
#135 = LINE ( 'NONE', #232, #68 ) ;
#136 = CARTESIAN_POINT ( 'NONE',  ( 25.00000000000000000, 25.00000000000000400, 25.00000000000000000 ) ) ;
#137 = ADVANCED_FACE ( 'NONE', ( #321 ), #248, .T. ) ;
#138 = APPROVAL ( #12, 'UNSPECIFIED' ) ;
#139 = EDGE_CURVE ( 'NONE', #4, #199, #153, .T. ) ;
#140 = CARTESIAN_POINT ( 'NONE',  ( 25.00000000000000000, 25.00000000000000400, 0.0000000000000000000 ) ) ;
#141 = CC_DESIGN_DATE_AND_TIME_ASSIGNMENT ( #278, #13, ( #247 ) ) ;
#142 = VECTOR ( 'NONE', #209, 1000.000000000000000 ) ;
#143 = EDGE_CURVE ( 'NONE', #189, #275, #249, .T. ) ;
#144 = ORIENTED_EDGE ( 'NONE', *, *, #56, .T. ) ;
#145 = CARTESIAN_POINT ( 'NONE',  ( -2.449293598294706500E-015, 25.00000000000000000, 25.00000000000000000 ) ) ;
#146 = PLANE ( 'NONE',  #276 ) ;
#147 = DIRECTION ( 'NONE',  ( 0.7071067811865474600, -0.7071067811865474600, 0.0000000000000000000 ) ) ;
#148 = ORIENTED_EDGE ( 'NONE', *, *, #61, .T. ) ;
#149 = DIRECTION ( 'NONE',  ( -0.7071067811865475700, -0.7071067811865475700, 0.0000000000000000000 ) ) ;
#150 = EDGE_CURVE ( 'NONE', #288, #71, #218, .T. ) ;
#151 = CARTESIAN_POINT ( 'NONE',  ( 25.00000000000000000, 0.0000000000000000000, 25.00000000000000000 ) ) ;
#152 = LOCAL_TIME ( 10, 57, 51.00000000000000000, #311 ) ;
#153 = LINE ( 'NONE', #214, #142 ) ;
#154 = LINE ( 'NONE', #151, #220 ) ;
#155 = ORIENTED_EDGE ( 'NONE', *, *, #3, .F. ) ;
#156 = PLANE ( 'NONE',  #272 ) ;
#157 = EDGE_CURVE ( 'NONE', #108, #254, #28, .T. ) ;
#158 = CARTESIAN_POINT ( 'NONE',  ( 25.00000000000000000, 0.0000000000000000000, 25.00000000000000000 ) ) ;
#159 = EDGE_LOOP ( 'NONE', ( #79, #250, #60, #115 ) ) ;
#160 = CARTESIAN_POINT ( 'NONE',  ( 25.00000000000000000, 0.0000000000000000000, 25.00000000000000000 ) ) ;
#161 = PERSON_AND_ORGANIZATION ( #313, #102 ) ;
#162 = EDGE_LOOP ( 'NONE', ( #222, #257, #127 ) ) ;
#163 = ORIENTED_EDGE ( 'NONE', *, *, #3, .T. ) ;
#164 = DIRECTION ( 'NONE',  ( -1.000000000000000000, -1.387778780781445400E-016, 0.0000000000000000000 ) ) ;
#165 = EDGE_CURVE ( 'NONE', #71, #254, #256, .T. ) ;
#166 = CARTESIAN_POINT ( 'NONE',  ( 0.0000000000000000000, 0.0000000000000000000, 25.00000000000000000 ) ) ;
#167 = ADVANCED_FACE ( 'NONE', ( #279 ), #187, .F. ) ;
#168 = CARTESIAN_POINT ( 'NONE',  ( 0.0000000000000000000, 0.0000000000000000000, 0.0000000000000000000 ) ) ;
#169 = VECTOR ( 'NONE', #192, 1000.000000000000100 ) ;
#170 = UNCERTAINTY_MEASURE_WITH_UNIT (LENGTH_MEASURE( 1.000000000000000100E-005 ), #54, 'distance_accuracy_value', 'NONE');
#171 = CARTESIAN_POINT ( 'NONE',  ( 25.00000000000000000, 25.00000000000000400, 0.0000000000000000000 ) ) ;
#172 = ORIENTED_EDGE ( 'NONE', *, *, #21, .T. ) ;
#173 = DIRECTION ( 'NONE',  ( 1.000000000000000000, 0.0000000000000000000, -0.0000000000000000000 ) ) ;
#174 = DIRECTION ( 'NONE',  ( 0.0000000000000000000, 0.0000000000000000000, 1.000000000000000000 ) ) ;
#175 = EDGE_CURVE ( 'NONE', #38, #108, #225, .T. ) ;
#176 = FACE_OUTER_BOUND ( 'NONE', #35, .T. ) ;
#177 = CARTESIAN_POINT ( 'NONE',  ( 0.0000000000000000000, 0.0000000000000000000, 0.0000000000000000000 ) ) ;
#178 = CC_DESIGN_PERSON_AND_ORGANIZATION_ASSIGNMENT ( #36, #19, ( #247 ) ) ;
#179 = DIRECTION ( 'NONE',  ( 1.000000000000000000, 0.0000000000000000000, 0.0000000000000000000 ) ) ;
#180 = CARTESIAN_POINT ( 'NONE',  ( 0.0000000000000000000, 0.0000000000000000000, 0.0000000000000000000 ) ) ;
#181 = APPROVAL_DATE_TIME ( #188, #200 ) ;
#182 = CARTESIAN_POINT ( 'NONE',  ( 25.00000000000000000, 25.00000000000000400, 25.00000000000000000 ) ) ;
#183 = DIRECTION ( 'NONE',  ( -0.0000000000000000000, -0.0000000000000000000, -1.000000000000000000 ) ) ;
#184 = CC_DESIGN_APPROVAL ( #138, ( #120 ) ) ;
#185 = EDGE_LOOP ( 'NONE', ( #96, #293, #39 ) ) ;
#186 = ORIENTED_EDGE ( 'NONE', *, *, #56, .F. ) ;
#187 = PLANE ( 'NONE',  #26 ) ;
#188 = DATE_AND_TIME ( #27, #230 ) ;
#189 = VERTEX_POINT ( 'NONE', #160 ) ;
#190 = CC_DESIGN_APPROVAL ( #200, ( #247 ) ) ;
#191 = FACE_OUTER_BOUND ( 'NONE', #162, .T. ) ;
#192 = DIRECTION ( 'NONE',  ( -0.7071067811865474600, 0.7071067811865474600, 0.0000000000000000000 ) ) ;
#193 = ADVANCED_FACE ( 'NONE', ( #285 ), #156, .F. ) ;
#194 = VERTEX_POINT ( 'NONE', #166 ) ;
#195 = VERTEX_POINT ( 'NONE', #145 ) ;
#196 = PLANE ( 'NONE',  #211 ) ;
#197 = PERSON_AND_ORGANIZATION ( #313, #102 ) ;
#198 = CARTESIAN_POINT ( 'NONE',  ( -2.449293598294706500E-015, 25.00000000000000000, 25.00000000000000000 ) ) ;
#199 = VERTEX_POINT ( 'NONE', #140 ) ;
#200 = APPROVAL ( #24, 'UNSPECIFIED' ) ;
#201 = PRODUCT_DEFINITION_SHAPE ( 'NONE', 'NONE',  #247 ) ;
#202 = CARTESIAN_POINT ( 'NONE',  ( -2.449293598294706500E-015, 25.00000000000000000, 25.00000000000000000 ) ) ;
#203 = DIRECTION ( 'NONE',  ( 0.0000000000000000000, 1.000000000000000000, 0.0000000000000000000 ) ) ;
#204 = COORDINATED_UNIVERSAL_TIME_OFFSET ( 7, 0, .BEHIND. ) ;
#205 = CLOSED_SHELL ( 'NONE', ( #193, #259, #320, #137, #167 ) ) ;
#206 = AXIS2_PLACEMENT_3D ( 'NONE', #223, #221, #219 ) ;
#207 = CARTESIAN_POINT ( 'NONE',  ( 25.00000000000000000, 0.0000000000000000000, 0.0000000000000000000 ) ) ;
#208 = DIRECTION ( 'NONE',  ( 0.0000000000000000000, 0.0000000000000000000, 1.000000000000000000 ) ) ;
#209 = DIRECTION ( 'NONE',  ( 0.0000000000000000000, 1.000000000000000000, 0.0000000000000000000 ) ) ;
#210 = ORIENTED_EDGE ( 'NONE', *, *, #81, .F. ) ;
#211 = AXIS2_PLACEMENT_3D ( 'NONE', #233, #213, #208 ) ;
#212 = PERSON_AND_ORGANIZATION ( #313, #102 ) ;
#213 = DIRECTION ( 'NONE',  ( -1.000000000000000000, 0.0000000000000000000, 0.0000000000000000000 ) ) ;
#214 = CARTESIAN_POINT ( 'NONE',  ( 25.00000000000000000, 0.0000000000000000000, 0.0000000000000000000 ) ) ;
#215 = CARTESIAN_POINT ( 'NONE',  ( 25.00000000000000000, 0.0000000000000000000, 25.00000000000000000 ) ) ;
#216 = DIRECTION ( 'NONE',  ( -0.7071067811865474600, 0.7071067811865474600, 0.0000000000000000000 ) ) ;
#217 = DATE_AND_TIME ( #53, #307 ) ;
#218 = LINE ( 'NONE', #215, #266 ) ;
#219 = DIRECTION ( 'NONE',  ( 1.000000000000000000, 0.0000000000000000000, -0.0000000000000000000 ) ) ;
#220 = VECTOR ( 'NONE', #283, 1000.000000000000000 ) ;
#221 = DIRECTION ( 'NONE',  ( 0.0000000000000000000, 0.0000000000000000000, 1.000000000000000000 ) ) ;
#222 = ORIENTED_EDGE ( 'NONE', *, *, #100, .T. ) ;
#223 = CARTESIAN_POINT ( 'NONE',  ( 0.0000000000000000000, 0.0000000000000000000, 25.00000000000000000 ) ) ;
#224 = PERSON_AND_ORGANIZATION ( #313, #102 ) ;
#225 = LINE ( 'NONE', #168, #235 ) ;
#226 = ORIENTED_EDGE ( 'NONE', *, *, #14, .F. ) ;
#227 = APPROVAL_ROLE ( '' ) ;
#228 = EDGE_LOOP ( 'NONE', ( #7, #241, #305, #98 ) ) ;
#229 = CARTESIAN_POINT ( 'NONE',  ( 25.00000000000000000, 0.0000000000000000000, 25.00000000000000000 ) ) ;
#230 = LOCAL_TIME ( 10, 57, 51.00000000000000000, #45 ) ;
#231 = LINE ( 'NONE', #171, #2 ) ;
#232 = CARTESIAN_POINT ( 'NONE',  ( -2.449293598294706500E-015, 25.00000000000000000, 25.00000000000000000 ) ) ;
#233 = CARTESIAN_POINT ( 'NONE',  ( 25.00000000000000000, 0.0000000000000000000, 25.00000000000000000 ) ) ;
#234 = DIRECTION ( 'NONE',  ( -0.0000000000000000000, -0.0000000000000000000, -1.000000000000000000 ) ) ;
#235 = VECTOR ( 'NONE', #179, 1000.000000000000000 ) ;
#236 = ADVANCED_FACE ( 'NONE', ( #86 ), #146, .F. ) ;
#237 = ORIENTED_EDGE ( 'NONE', *, *, #81, .T. ) ;
#238 = LOCAL_TIME ( 10, 57, 51.00000000000000000, #204 ) ;
#239 = LINE ( 'NONE', #63, #309 ) ;
#240 = DIRECTION ( 'NONE',  ( 0.7071067811865474600, -0.7071067811865474600, 0.0000000000000000000 ) ) ;
#241 = ORIENTED_EDGE ( 'NONE', *, *, #165, .F. ) ;
#242 = DIRECTION ( 'NONE',  ( 0.7071067811865474600, -0.7071067811865474600, 0.0000000000000000000 ) ) ;
#243 = PERSON_AND_ORGANIZATION ( #313, #102 ) ;
#244 = LINE ( 'NONE', #251, #16 ) ;
#245 = CARTESIAN_POINT ( 'NONE',  ( -2.449293598294706500E-015, 25.00000000000000000, 0.0000000000000000000 ) ) ;
#246 = ORIENTED_EDGE ( 'NONE', *, *, #107, .T. ) ;
#247 = PRODUCT_DEFINITION ( 'UNKNOWN', '', #120, #318 ) ;
#248 = PLANE ( 'NONE',  #206 ) ;
#249 = LINE ( 'NONE', #229, #317 ) ;
#250 = ORIENTED_EDGE ( 'NONE', *, *, #107, .F. ) ;
#251 = CARTESIAN_POINT ( 'NONE',  ( 25.00000000000000000, 0.0000000000000000000, 25.00000000000000000 ) ) ;
#252 = FACE_OUTER_BOUND ( 'NONE', #29, .T. ) ;
#253 = EDGE_LOOP ( 'NONE', ( #124, #155, #281, #246 ) ) ;
#254 = VERTEX_POINT ( 'NONE', #125 ) ;
#255 = DIRECTION ( 'NONE',  ( -1.000000000000000000, 0.0000000000000000000, 0.0000000000000000000 ) ) ;
#256 = LINE ( 'NONE', #198, #42 ) ;
#257 = ORIENTED_EDGE ( 'NONE', *, *, #128, .T. ) ;
#258 = ORIENTED_EDGE ( 'NONE', *, *, #114, .T. ) ;
#259 = ADVANCED_FACE ( 'NONE', ( #33 ), #134, .F. ) ;
#260 = MANIFOLD_SOLID_BREP ( 'Boss-Extrude1', #205 ) ;
#261 = DIRECTION ( 'NONE',  ( 0.0000000000000000000, 0.0000000000000000000, -1.000000000000000000 ) ) ;
#262 = COORDINATED_UNIVERSAL_TIME_OFFSET ( 7, 0, .BEHIND. ) ;
#263 = DIRECTION ( 'NONE',  ( -0.0000000000000000000, -0.0000000000000000000, -1.000000000000000000 ) ) ;
#264 = AXIS2_PLACEMENT_3D ( 'NONE', #202, #122, #74 ) ;
#265 = DIRECTION ( 'NONE',  ( 9.797174393178826200E-017, -1.000000000000000000, 0.0000000000000000000 ) ) ;
#266 = VECTOR ( 'NONE', #216, 1000.000000000000100 ) ;
#267 = CLOSED_SHELL ( 'NONE', ( #236, #52, #22, #110, #284 ) ) ;
#268 = CARTESIAN_POINT ( 'NONE',  ( -2.449293598294706500E-015, 25.00000000000000000, 0.0000000000000000000 ) ) ;
#269 = CARTESIAN_POINT ( 'NONE',  ( -2.449293598294706500E-015, 25.00000000000000000, 25.00000000000000000 ) ) ;
#270 = CC_DESIGN_PERSON_AND_ORGANIZATION_ASSIGNMENT ( #94, #34, ( #294 ) ) ;
#271 = ORIENTED_EDGE ( 'NONE', *, *, #128, .F. ) ;
#272 = AXIS2_PLACEMENT_3D ( 'NONE', #158, #149, #147 ) ;
#273 = CALENDAR_DATE ( 2014, 12, 6 ) ;
#274 = CARTESIAN_POINT ( 'NONE',  ( 0.0000000000000000000, 0.0000000000000000000, 25.00000000000000000 ) ) ;
#275 = VERTEX_POINT ( 'NONE', #99 ) ;
#276 = AXIS2_PLACEMENT_3D ( 'NONE', #136, #132, #126 ) ;
#277 = MANIFOLD_SOLID_BREP ( 'Boss-Extrude2', #267 ) ;
#278 = DATE_AND_TIME ( #15, #238 ) ;
#279 = FACE_OUTER_BOUND ( 'NONE', #185, .T. ) ;
#280 = PLANE ( 'NONE',  #17 ) ;
#281 = ORIENTED_EDGE ( 'NONE', *, *, #100, .F. ) ;
#282 = AXIS2_PLACEMENT_3D ( 'NONE', #116, #111, #105 ) ;
#283 = DIRECTION ( 'NONE',  ( -0.0000000000000000000, -0.0000000000000000000, -1.000000000000000000 ) ) ;
#284 = ADVANCED_FACE ( 'NONE', ( #252 ), #104, .T. ) ;
#285 = FACE_OUTER_BOUND ( 'NONE', #228, .T. ) ;
#286 = APPROVAL_PERSON_ORGANIZATION ( #243, #138, #10 ) ;
#287 = CARTESIAN_POINT ( 'NONE',  ( 25.00000000000000000, 0.0000000000000000000, 0.0000000000000000000 ) ) ;
#288 = VERTEX_POINT ( 'NONE', #95 ) ;
#289 = DIRECTION ( 'NONE',  ( -0.0000000000000000000, -0.0000000000000000000, -1.000000000000000000 ) ) ;
#290 = CARTESIAN_POINT ( 'NONE',  ( 25.00000000000000000, 0.0000000000000000000, 0.0000000000000000000 ) ) ;
#291 = APPROVAL_DATE_TIME ( #217, #138 ) ;
#292 = DIRECTION ( 'NONE',  ( 9.797174393178826200E-017, -1.000000000000000000, 0.0000000000000000000 ) ) ;
#293 = ORIENTED_EDGE ( 'NONE', *, *, #175, .F. ) ;
#294 = PRODUCT ( 'step_47236', 'step_47236', '', ( #37 ) ) ;
#295 = DIRECTION ( 'NONE',  ( -1.000000000000000000, -1.387778780781445400E-016, 0.0000000000000000000 ) ) ;
#296 = AXIS2_PLACEMENT_3D ( 'NONE', #133, #93, #92 ) ;
#297 = LOCAL_TIME ( 10, 57, 51.00000000000000000, #121 ) ;
#298 = SHAPE_DEFINITION_REPRESENTATION ( #201, #65 ) ;
#299 = VERTEX_POINT ( 'NONE', #83 ) ;
#300 = VECTOR ( 'NONE', #289, 1000.000000000000000 ) ;
#301 = ORIENTED_EDGE ( 'NONE', *, *, #61, .F. ) ;
#302 = EDGE_LOOP ( 'NONE', ( #11, #237, #148 ) ) ;
#303 = CARTESIAN_POINT ( 'NONE',  ( -2.449293598294706500E-015, 25.00000000000000000, 25.00000000000000000 ) ) ;
#304 = FACE_OUTER_BOUND ( 'NONE', #159, .T. ) ;
#305 = ORIENTED_EDGE ( 'NONE', *, *, #150, .F. ) ;
#306 =( GEOMETRIC_REPRESENTATION_CONTEXT ( 3 ) GLOBAL_UNCERTAINTY_ASSIGNED_CONTEXT ( ( #170 ) ) GLOBAL_UNIT_ASSIGNED_CONTEXT ( ( #54, #50, #49 ) ) REPRESENTATION_CONTEXT ( 'NONE', 'WORKASPACE' ) );
#307 = LOCAL_TIME ( 10, 57, 51.00000000000000000, #262 ) ;
#308 = CARTESIAN_POINT ( 'NONE',  ( -2.449293598294706500E-015, 25.00000000000000000, 25.00000000000000000 ) ) ;
#309 = VECTOR ( 'NONE', #69, 1000.000000000000000 ) ;
#310 = VECTOR ( 'NONE', #292, 1000.000000000000000 ) ;
#311 = COORDINATED_UNIVERSAL_TIME_OFFSET ( 7, 0, .BEHIND. ) ;
#312 = LINE ( 'NONE', #245, #113 ) ;
#313 = PERSON ( 'UNSPECIFIED', 'UNSPECIFIED', 'UNSPECIFIED', ('UNSPECIFIED'), ('UNSPECIFIED'), ('UNSPECIFIED') ) ;
#314 = CARTESIAN_POINT ( 'NONE',  ( 25.00000000000000000, 25.00000000000000400, 25.00000000000000000 ) ) ;
#315 = AXIS2_PLACEMENT_3D ( 'NONE', #85, #78, #75 ) ;
#316 = CALENDAR_DATE ( 2014, 12, 6 ) ;
#317 = VECTOR ( 'NONE', #203, 1000.000000000000000 ) ;
#318 = DESIGN_CONTEXT ( 'detailed design', #31, 'design' ) ;
#319 = AXIS2_PLACEMENT_3D ( 'NONE', #66, #103, #40 ) ;
#320 = ADVANCED_FACE ( 'NONE', ( #89 ), #90, .F. ) ;
#321 = FACE_OUTER_BOUND ( 'NONE', #302, .T. ) ;
ENDSEC;
END-ISO-10303-21;
