ISO-10303-21;
HEADER;
FILE_DESCRIPTION (( 'STEP AP203' ),
    '1' );
FILE_NAME ('Web Model 47231_36987.step',
    '2019-01-07T15:27:13',
    ( '' ),
    ( '' ),
    'SwSTEP 2.0',
    'SolidWorks 2016',
    '' );
FILE_SCHEMA (( 'CONFIG_CONTROL_DESIGN' ));
ENDSEC;

DATA;
#1 = DIRECTION ( 'NONE',  ( -0.0000000000000000000, -1.000000000000000000, -0.0000000000000000000 ) ) ;
#2 = LINE ( 'NONE', #227, #191 ) ;
#3 = CARTESIAN_POINT ( 'NONE',  ( 25.00000000000000000, -25.00000000000000000, -2.000000000000000000 ) ) ;
#4 = DIRECTION ( 'NONE',  ( 1.000000000000000000, 0.0000000000000000000, 0.0000000000000000000 ) ) ;
#5 = ORIENTED_EDGE ( 'NONE', *, *, #215, .F. ) ;
#6 = LINE ( 'NONE', #7, #189 ) ;
#7 = CARTESIAN_POINT ( 'NONE',  ( 25.00000000000000000, 25.00000000000000400, 2.000000000000000000 ) ) ;
#8 = APPROVAL_STATUS ( 'not_yet_approved' ) ;
#9 = CC_DESIGN_PERSON_AND_ORGANIZATION_ASSIGNMENT ( #232, #43, ( #202 ) ) ;
#10 = APPLICATION_CONTEXT ( 'configuration controlled 3d designs of mechanical parts and assemblies' ) ;
#11 = LINE ( 'NONE', #129, #194 ) ;
#12 = APPLICATION_PROTOCOL_DEFINITION ( 'international standard', 'config_control_design', 1994, #10 ) ;
#13 = PRODUCT_DEFINITION_SHAPE ( 'NONE', 'NONE',  #190 ) ;
#14 = COORDINATED_UNIVERSAL_TIME_OFFSET ( 5, 0, .BEHIND. ) ;
#15 = FACE_OUTER_BOUND ( 'NONE', #135, .T. ) ;
#16 = VERTEX_POINT ( 'NONE', #160 ) ;
#17 = ORIENTED_EDGE ( 'NONE', *, *, #80, .T. ) ;
#18 = VECTOR ( 'NONE', #149, 1000.000000000000000 ) ;
#19 = DIRECTION ( 'NONE',  ( 0.0000000000000000000, 1.000000000000000000, 0.0000000000000000000 ) ) ;
#20 = CARTESIAN_POINT ( 'NONE',  ( 25.00000000000000000, -25.00000000000000000, -2.000000000000000000 ) ) ;
#21 = VECTOR ( 'NONE', #90, 1000.000000000000000 ) ;
#22 = PERSON_AND_ORGANIZATION ( #157, #192 ) ;
#23 = DIRECTION ( 'NONE',  ( -1.000000000000000000, 0.0000000000000000000, -0.0000000000000000000 ) ) ;
#24 = VECTOR ( 'NONE', #171, 1000.000000000000000 ) ;
#25 = DIRECTION ( 'NONE',  ( 1.000000000000000000, 0.0000000000000000000, 0.0000000000000000000 ) ) ;
#26 = APPROVAL ( #61, 'UNSPECIFIED' ) ;
#27 = DATE_TIME_ROLE ( 'classification_date' ) ;
#28 = APPROVAL_PERSON_ORGANIZATION ( #65, #66, #131 ) ;
#29 = APPLICATION_PROTOCOL_DEFINITION ( 'international standard', 'config_control_design', 1994, #113 ) ;
#30 = LOCAL_TIME ( 10, 27, 13.00000000000000000, #111 ) ;
#31 = AXIS2_PLACEMENT_3D ( 'NONE', #99, #79, #230 ) ;
#32 = EDGE_CURVE ( 'NONE', #16, #104, #2, .T. ) ;
#33 = CC_DESIGN_DATE_AND_TIME_ASSIGNMENT ( #96, #27, ( #193 ) ) ;
#34 = CARTESIAN_POINT ( 'NONE',  ( 25.00000000000000000, -25.00000000000000000, 2.000000000000000000 ) ) ;
#35 = DIRECTION ( 'NONE',  ( -0.0000000000000000000, -0.0000000000000000000, -1.000000000000000000 ) ) ;
#36 = ORIENTED_EDGE ( 'NONE', *, *, #233, .F. ) ;
#37 = DATE_AND_TIME ( #175, #72 ) ;
#38 = CARTESIAN_POINT ( 'NONE',  ( 25.00000000000000000, -25.00000000000000000, 2.000000000000000000 ) ) ;
#39 = DIRECTION ( 'NONE',  ( 0.0000000000000000000, -0.0000000000000000000, 1.000000000000000000 ) ) ;
#40 = CALENDAR_DATE ( 2019, 7, 1 ) ;
#41 = PERSON_AND_ORGANIZATION_ROLE ( 'design_owner' ) ;
#42 = PERSON_AND_ORGANIZATION_ROLE ( 'classification_officer' ) ;
#43 = PERSON_AND_ORGANIZATION_ROLE ( 'creator' ) ;
#44 = DIRECTION ( 'NONE',  ( 0.0000000000000000000, -0.0000000000000000000, -1.000000000000000000 ) ) ;
#45 = ORIENTED_EDGE ( 'NONE', *, *, #134, .F. ) ;
#46 = CC_DESIGN_APPROVAL ( #66, ( #193 ) ) ;
#47 = ORIENTED_EDGE ( 'NONE', *, *, #233, .T. ) ;
#48 = ORIENTED_EDGE ( 'NONE', *, *, #159, .F. ) ;
#49 = VERTEX_POINT ( 'NONE', #178 ) ;
#50 = VECTOR ( 'NONE', #158, 1000.000000000000000 ) ;
#51 = CC_DESIGN_PERSON_AND_ORGANIZATION_ASSIGNMENT ( #136, #81, ( #190 ) ) ;
#52 = DIRECTION ( 'NONE',  ( 0.0000000000000000000, 1.000000000000000000, 0.0000000000000000000 ) ) ;
#53 = ORIENTED_EDGE ( 'NONE', *, *, #107, .T. ) ;
#54 = LINE ( 'NONE', #93, #24 ) ;
#55 = UNCERTAINTY_MEASURE_WITH_UNIT (LENGTH_MEASURE( 1.000000000000000100E-005 ), #84, 'distance_accuracy_value', 'NONE');
#56 = DIRECTION ( 'NONE',  ( -0.0000000000000000000, -1.000000000000000000, -0.0000000000000000000 ) ) ;
#57 = LINE ( 'NONE', #182, #125 ) ;
#58 = LOCAL_TIME ( 10, 27, 13.00000000000000000, #86 ) ;
#59 = PERSON_AND_ORGANIZATION_ROLE ( 'design_supplier' ) ;
#60 = CC_DESIGN_APPROVAL ( #26, ( #202 ) ) ;
#61 = APPROVAL_STATUS ( 'not_yet_approved' ) ;
#62 = ORIENTED_EDGE ( 'NONE', *, *, #32, .F. ) ;
#63 = ADVANCED_FACE ( 'NONE', ( #102 ), #124, .F. ) ;
#64 = LINE ( 'NONE', #181, #220 ) ;
#65 = PERSON_AND_ORGANIZATION ( #157, #192 ) ;
#66 = APPROVAL ( #8, 'UNSPECIFIED' ) ;
#67 = VERTEX_POINT ( 'NONE', #34 ) ;
#68 = LINE ( 'NONE', #186, #18 ) ;
#69 = ORIENTED_EDGE ( 'NONE', *, *, #215, .T. ) ;
#70 = CC_DESIGN_PERSON_AND_ORGANIZATION_ASSIGNMENT ( #126, #42, ( #193 ) ) ;
#71 = PRODUCT ( 'Web Model 47231_36987', 'Web Model 47231_36987', '', ( #132 ) ) ;
#72 = LOCAL_TIME ( 10, 27, 13.00000000000000000, #156 ) ;
#73 = AXIS2_PLACEMENT_3D ( 'NONE', #106, #161, #23 ) ;
#74 = CARTESIAN_POINT ( 'NONE',  ( -25.00000000000000400, 25.00000000000000400, 2.000000000000000000 ) ) ;
#75 = CARTESIAN_POINT ( 'NONE',  ( 25.00000000000000000, -25.00000000000000000, 2.000000000000000000 ) ) ;
#76 = LINE ( 'NONE', #3, #207 ) ;
#77 = PERSON_AND_ORGANIZATION ( #157, #192 ) ;
#78 = DIRECTION ( 'NONE',  ( -1.000000000000000000, 0.0000000000000000000, 0.0000000000000000000 ) ) ;
#79 = DIRECTION ( 'NONE',  ( 0.0000000000000000000, 0.0000000000000000000, 1.000000000000000000 ) ) ;
#80 = EDGE_CURVE ( 'NONE', #92, #49, #76, .T. ) ;
#81 = PERSON_AND_ORGANIZATION_ROLE ( 'creator' ) ;
#82 = APPROVAL_PERSON_ORGANIZATION ( #234, #26, #213 ) ;
#83 = APPROVAL_ROLE ( '' ) ;
#84 =( LENGTH_UNIT ( ) NAMED_UNIT ( * ) SI_UNIT ( .MILLI., .METRE. ) );
#85 = ORIENTED_EDGE ( 'NONE', *, *, #128, .T. ) ;
#86 = COORDINATED_UNIVERSAL_TIME_OFFSET ( 5, 0, .BEHIND. ) ;
#87 = ORIENTED_EDGE ( 'NONE', *, *, #197, .T. ) ;
#88 = CALENDAR_DATE ( 2019, 7, 1 ) ;
#89 = PERSON_AND_ORGANIZATION ( #157, #192 ) ;
#90 = DIRECTION ( 'NONE',  ( -0.0000000000000000000, -0.0000000000000000000, -1.000000000000000000 ) ) ;
#91 = CARTESIAN_POINT ( 'NONE',  ( -25.00000000000000400, -25.00000000000000000, 2.000000000000000000 ) ) ;
#92 = VERTEX_POINT ( 'NONE', #20 ) ;
#93 = CARTESIAN_POINT ( 'NONE',  ( 25.00000000000000000, -25.00000000000000000, 2.000000000000000000 ) ) ;
#94 = CARTESIAN_POINT ( 'NONE',  ( -25.00000000000000400, -25.00000000000000000, 2.000000000000000000 ) ) ;
#95 = EDGE_LOOP ( 'NONE', ( #17, #36, #100, #87 ) ) ;
#96 = DATE_AND_TIME ( #40, #30 ) ;
#97 = DIRECTION ( 'NONE',  ( 0.0000000000000000000, -1.000000000000000000, 0.0000000000000000000 ) ) ;
#98 = PLANE ( 'NONE',  #168 ) ;
#99 = CARTESIAN_POINT ( 'NONE',  ( 0.0000000000000000000, 0.0000000000000000000, 0.0000000000000000000 ) ) ;
#100 = ORIENTED_EDGE ( 'NONE', *, *, #226, .F. ) ;
#101 = ORIENTED_EDGE ( 'NONE', *, *, #128, .F. ) ;
#102 = FACE_OUTER_BOUND ( 'NONE', #139, .T. ) ;
#103 = ORIENTED_EDGE ( 'NONE', *, *, #226, .T. ) ;
#104 = VERTEX_POINT ( 'NONE', #208 ) ;
#105 = CARTESIAN_POINT ( 'NONE',  ( -25.00000000000000400, 25.00000000000000400, -2.000000000000000000 ) ) ;
#106 = CARTESIAN_POINT ( 'NONE',  ( 0.0000000000000000000, 0.0000000000000000000, 2.000000000000000000 ) ) ;
#107 = EDGE_CURVE ( 'NONE', #104, #92, #11, .T. ) ;
#108 = PLANE ( 'NONE',  #217 ) ;
#109 = CARTESIAN_POINT ( 'NONE',  ( -25.00000000000000400, 25.00000000000000400, 2.000000000000000000 ) ) ;
#110 = FACE_OUTER_BOUND ( 'NONE', #237, .T. ) ;
#111 = COORDINATED_UNIVERSAL_TIME_OFFSET ( 5, 0, .BEHIND. ) ;
#112 = CARTESIAN_POINT ( 'NONE',  ( -25.00000000000000400, -25.00000000000000000, 2.000000000000000000 ) ) ;
#113 = APPLICATION_CONTEXT ( 'configuration controlled 3d designs of mechanical parts and assemblies' ) ;
#114 = ORIENTED_EDGE ( 'NONE', *, *, #134, .T. ) ;
#115 = CC_DESIGN_PERSON_AND_ORGANIZATION_ASSIGNMENT ( #89, #41, ( #71 ) ) ;
#116 =( NAMED_UNIT ( * ) PLANE_ANGLE_UNIT ( ) SI_UNIT ( $, .RADIAN. ) );
#117 = ADVANCED_FACE ( 'NONE', ( #15 ), #127, .F. ) ;
#118 = ORIENTED_EDGE ( 'NONE', *, *, #197, .F. ) ;
#119 = DATE_AND_TIME ( #180, #216 ) ;
#120 = APPROVAL_DATE_TIME ( #167, #26 ) ;
#121 = VERTEX_POINT ( 'NONE', #147 ) ;
#122 = EDGE_CURVE ( 'NONE', #49, #154, #57, .T. ) ;
#123 = LOCAL_TIME ( 10, 27, 13.00000000000000000, #222 ) ;
#124 = PLANE ( 'NONE',  #170 ) ;
#125 = VECTOR ( 'NONE', #204, 1000.000000000000000 ) ;
#126 = PERSON_AND_ORGANIZATION ( #157, #192 ) ;
#127 = PLANE ( 'NONE',  #73 ) ;
#128 = EDGE_CURVE ( 'NONE', #154, #104, #201, .T. ) ;
#129 = CARTESIAN_POINT ( 'NONE',  ( -25.00000000000000400, -25.00000000000000000, -2.000000000000000000 ) ) ;
#130 = APPROVAL_PERSON_ORGANIZATION ( #22, #205, #83 ) ;
#131 = APPROVAL_ROLE ( '' ) ;
#132 = MECHANICAL_CONTEXT ( 'NONE', #10, 'mechanical' ) ;
#133 = ADVANCED_FACE ( 'NONE', ( #138 ), #108, .T. ) ;
#134 = EDGE_CURVE ( 'NONE', #219, #154, #142, .T. ) ;
#135 = EDGE_LOOP ( 'NONE', ( #103, #69, #151, #146 ) ) ;
#136 = PERSON_AND_ORGANIZATION ( #157, #192 ) ;
#137 = ORIENTED_EDGE ( 'NONE', *, *, #150, .F. ) ;
#138 = FACE_OUTER_BOUND ( 'NONE', #210, .T. ) ;
#139 = EDGE_LOOP ( 'NONE', ( #85, #62, #48, #114 ) ) ;
#140 = CC_DESIGN_SECURITY_CLASSIFICATION ( #193, ( #202 ) ) ;
#141 = DIRECTION ( 'NONE',  ( 0.0000000000000000000, 0.0000000000000000000, -1.000000000000000000 ) ) ;
#142 = LINE ( 'NONE', #74, #21 ) ;
#143 = FACE_OUTER_BOUND ( 'NONE', #95, .T. ) ;
#144 = PLANE ( 'NONE',  #196 ) ;
#145 = CARTESIAN_POINT ( 'NONE',  ( 0.0000000000000000000, 0.0000000000000000000, -2.000000000000000000 ) ) ;
#146 = ORIENTED_EDGE ( 'NONE', *, *, #150, .T. ) ;
#147 = CARTESIAN_POINT ( 'NONE',  ( 25.00000000000000000, 25.00000000000000400, 2.000000000000000000 ) ) ;
#148 = LINE ( 'NONE', #75, #50 ) ;
#149 = DIRECTION ( 'NONE',  ( -1.000000000000000000, -0.0000000000000000000, -0.0000000000000000000 ) ) ;
#150 = EDGE_CURVE ( 'NONE', #16, #67, #214, .T. ) ;
#151 = ORIENTED_EDGE ( 'NONE', *, *, #159, .T. ) ;
#152 = FACE_OUTER_BOUND ( 'NONE', #235, .T. ) ;
#153 = ORIENTED_EDGE ( 'NONE', *, *, #122, .F. ) ;
#154 = VERTEX_POINT ( 'NONE', #105 ) ;
#155 = VECTOR ( 'NONE', #183, 1000.000000000000000 ) ;
#156 = COORDINATED_UNIVERSAL_TIME_OFFSET ( 5, 0, .BEHIND. ) ;
#157 = PERSON ( 'UNSPECIFIED', 'UNSPECIFIED', 'UNSPECIFIED', ('UNSPECIFIED'), ('UNSPECIFIED'), ('UNSPECIFIED') ) ;
#158 = DIRECTION ( 'NONE',  ( -0.0000000000000000000, -0.0000000000000000000, -1.000000000000000000 ) ) ;
#159 = EDGE_CURVE ( 'NONE', #219, #16, #64, .T. ) ;
#160 = CARTESIAN_POINT ( 'NONE',  ( -25.00000000000000400, -25.00000000000000000, 2.000000000000000000 ) ) ;
#161 = DIRECTION ( 'NONE',  ( 0.0000000000000000000, 0.0000000000000000000, -1.000000000000000000 ) ) ;
#162 = CC_DESIGN_DATE_AND_TIME_ASSIGNMENT ( #37, #188, ( #190 ) ) ;
#163 = CALENDAR_DATE ( 2019, 7, 1 ) ;
#164 = ADVANCED_FACE ( 'NONE', ( #110 ), #223, .F. ) ;
#165 = CARTESIAN_POINT ( 'NONE',  ( -25.00000000000000400, -25.00000000000000000, -2.000000000000000000 ) ) ;
#166 =( NAMED_UNIT ( * ) SI_UNIT ( $, .STERADIAN. ) SOLID_ANGLE_UNIT ( ) );
#167 = DATE_AND_TIME ( #88, #123 ) ;
#168 = AXIS2_PLACEMENT_3D ( 'NONE', #231, #97, #44 ) ;
#169 = APPROVAL_STATUS ( 'not_yet_approved' ) ;
#170 = AXIS2_PLACEMENT_3D ( 'NONE', #112, #4, #224 ) ;
#171 = DIRECTION ( 'NONE',  ( 0.0000000000000000000, 1.000000000000000000, 0.0000000000000000000 ) ) ;
#172 = ORIENTED_EDGE ( 'NONE', *, *, #122, .T. ) ;
#173 = DATE_AND_TIME ( #163, #58 ) ;
#174 = PRODUCT_RELATED_PRODUCT_CATEGORY ( 'detail', '', ( #71 ) ) ;
#175 = CALENDAR_DATE ( 2019, 7, 1 ) ;
#176 = CC_DESIGN_APPROVAL ( #205, ( #190 ) ) ;
#177 = CLOSED_SHELL ( 'NONE', ( #212, #228, #63, #164, #117, #133 ) ) ;
#178 = CARTESIAN_POINT ( 'NONE',  ( 25.00000000000000000, 25.00000000000000400, -2.000000000000000000 ) ) ;
#179 = ORIENTED_EDGE ( 'NONE', *, *, #32, .T. ) ;
#180 = CALENDAR_DATE ( 2019, 7, 1 ) ;
#181 = CARTESIAN_POINT ( 'NONE',  ( -25.00000000000000400, -25.00000000000000000, 2.000000000000000000 ) ) ;
#182 = CARTESIAN_POINT ( 'NONE',  ( -25.00000000000000400, 25.00000000000000400, -2.000000000000000000 ) ) ;
#183 = DIRECTION ( 'NONE',  ( 1.000000000000000000, 0.0000000000000000000, 0.0000000000000000000 ) ) ;
#184 = ORIENTED_EDGE ( 'NONE', *, *, #80, .F. ) ;
#185 = DIRECTION ( 'NONE',  ( -0.0000000000000000000, -0.0000000000000000000, -1.000000000000000000 ) ) ;
#186 = CARTESIAN_POINT ( 'NONE',  ( -25.00000000000000400, 25.00000000000000400, 2.000000000000000000 ) ) ;
#187 = ORIENTED_EDGE ( 'NONE', *, *, #107, .F. ) ;
#188 = DATE_TIME_ROLE ( 'creation_date' ) ;
#189 = VECTOR ( 'NONE', #185, 1000.000000000000000 ) ;
#190 = PRODUCT_DEFINITION ( 'UNKNOWN', '', #202, #200 ) ;
#191 = VECTOR ( 'NONE', #35, 1000.000000000000000 ) ;
#192 = ORGANIZATION ( 'UNSPECIFIED', 'UNSPECIFIED', '' ) ;
#193 = SECURITY_CLASSIFICATION ( '', '', #209 ) ;
#194 = VECTOR ( 'NONE', #25, 1000.000000000000000 ) ;
#195 = SHAPE_DEFINITION_REPRESENTATION ( #13, #221 ) ;
#196 = AXIS2_PLACEMENT_3D ( 'NONE', #38, #78, #206 ) ;
#197 = EDGE_CURVE ( 'NONE', #67, #92, #148, .T. ) ;
#198 = VECTOR ( 'NONE', #56, 1000.000000000000000 ) ;
#199 = APPROVAL_DATE_TIME ( #119, #205 ) ;
#200 = DESIGN_CONTEXT ( 'detailed design', #113, 'design' ) ;
#201 = LINE ( 'NONE', #165, #198 ) ;
#202 = PRODUCT_DEFINITION_FORMATION_WITH_SPECIFIED_SOURCE ( 'ANY', '', #71, .NOT_KNOWN. ) ;
#203 = DIRECTION ( 'NONE',  ( -1.000000000000000000, 0.0000000000000000000, -0.0000000000000000000 ) ) ;
#204 = DIRECTION ( 'NONE',  ( -1.000000000000000000, -0.0000000000000000000, -0.0000000000000000000 ) ) ;
#205 = APPROVAL ( #169, 'UNSPECIFIED' ) ;
#206 = DIRECTION ( 'NONE',  ( 0.0000000000000000000, 0.0000000000000000000, 1.000000000000000000 ) ) ;
#207 = VECTOR ( 'NONE', #52, 1000.000000000000000 ) ;
#208 = CARTESIAN_POINT ( 'NONE',  ( -25.00000000000000400, -25.00000000000000000, -2.000000000000000000 ) ) ;
#209 = SECURITY_CLASSIFICATION_LEVEL ( 'unclassified' ) ;
#210 = EDGE_LOOP ( 'NONE', ( #184, #187, #101, #153 ) ) ;
#211 = AXIS2_PLACEMENT_3D ( 'NONE', #91, #19, #39 ) ;
#212 = ADVANCED_FACE ( 'NONE', ( #143 ), #144, .F. ) ;
#213 = APPROVAL_ROLE ( '' ) ;
#214 = LINE ( 'NONE', #94, #155 ) ;
#215 = EDGE_CURVE ( 'NONE', #121, #219, #68, .T. ) ;
#216 = LOCAL_TIME ( 10, 27, 13.00000000000000000, #14 ) ;
#217 = AXIS2_PLACEMENT_3D ( 'NONE', #145, #141, #203 ) ;
#218 = CC_DESIGN_PERSON_AND_ORGANIZATION_ASSIGNMENT ( #77, #59, ( #202 ) ) ;
#219 = VERTEX_POINT ( 'NONE', #109 ) ;
#220 = VECTOR ( 'NONE', #1, 1000.000000000000000 ) ;
#221 = ADVANCED_BREP_SHAPE_REPRESENTATION ( 'Web Model 47231_36987', ( #225, #31 ), #236 ) ;
#222 = COORDINATED_UNIVERSAL_TIME_OFFSET ( 5, 0, .BEHIND. ) ;
#223 = PLANE ( 'NONE',  #211 ) ;
#224 = DIRECTION ( 'NONE',  ( 0.0000000000000000000, 0.0000000000000000000, -1.000000000000000000 ) ) ;
#225 = MANIFOLD_SOLID_BREP ( 'Boss-Extrude1', #177 ) ;
#226 = EDGE_CURVE ( 'NONE', #67, #121, #54, .T. ) ;
#227 = CARTESIAN_POINT ( 'NONE',  ( -25.00000000000000400, -25.00000000000000000, 2.000000000000000000 ) ) ;
#228 = ADVANCED_FACE ( 'NONE', ( #152 ), #98, .F. ) ;
#229 = APPROVAL_DATE_TIME ( #173, #66 ) ;
#230 = DIRECTION ( 'NONE',  ( 1.000000000000000000, 0.0000000000000000000, 0.0000000000000000000 ) ) ;
#231 = CARTESIAN_POINT ( 'NONE',  ( -25.00000000000000400, 25.00000000000000400, 2.000000000000000000 ) ) ;
#232 = PERSON_AND_ORGANIZATION ( #157, #192 ) ;
#233 = EDGE_CURVE ( 'NONE', #121, #49, #6, .T. ) ;
#234 = PERSON_AND_ORGANIZATION ( #157, #192 ) ;
#235 = EDGE_LOOP ( 'NONE', ( #172, #45, #5, #47 ) ) ;
#236 =( GEOMETRIC_REPRESENTATION_CONTEXT ( 3 ) GLOBAL_UNCERTAINTY_ASSIGNED_CONTEXT ( ( #55 ) ) GLOBAL_UNIT_ASSIGNED_CONTEXT ( ( #84, #116, #166 ) ) REPRESENTATION_CONTEXT ( 'NONE', 'WORKASPACE' ) );
#237 = EDGE_LOOP ( 'NONE', ( #53, #118, #137, #179 ) ) ;
ENDSEC;
END-ISO-10303-21;
