ISO-10303-21;
HEADER;
FILE_DESCRIPTION (( 'STEP AP203' ),
    '1' );
FILE_NAME ('Web Model 43214_43214.step',
    '2018-03-12T19:14:49',
    ( '' ),
    ( '' ),
    'SwSTEP 2.0',
    'SolidWorks 2016',
    '' );
FILE_SCHEMA (( 'CONFIG_CONTROL_DESIGN' ));
ENDSEC;

DATA;
#1 = CC_DESIGN_PERSON_AND_ORGANIZATION_ASSIGNMENT ( #99, #3, ( #130 ) ) ;
#2 = LOCAL_TIME ( 15, 14, 49.00000000000000000, #7 ) ;
#3 = PERSON_AND_ORGANIZATION_ROLE ( 'design_supplier' ) ;
#4 = SECURITY_CLASSIFICATION ( '', '', #60 ) ;
#5 = DESIGN_CONTEXT ( 'detailed design', #202, 'design' ) ;
#6 = EDGE_CURVE ( 'NONE', #75, #177, #230, .T. ) ;
#7 = COORDINATED_UNIVERSAL_TIME_OFFSET ( 5, 0, .BEHIND. ) ;
#8 = PRODUCT ( 'Web Model 43214_43214', 'Web Model 43214_43214', '', ( #102 ) ) ;
#9 = DIRECTION ( 'NONE',  ( -0.0000000000000000000, -2.775557561562891400E-016, 1.000000000000000000 ) ) ;
#10 = DIRECTION ( 'NONE',  ( -0.0000000000000000000, 0.0000000000000000000, 1.000000000000000000 ) ) ;
#11 = APPROVAL_DATE_TIME ( #190, #232 ) ;
#12 = COORDINATED_UNIVERSAL_TIME_OFFSET ( 5, 0, .BEHIND. ) ;
#13 = CARTESIAN_POINT ( 'NONE',  ( 4.750000000000000000, 24.99999999999997900, 25.00000000000000000 ) ) ;
#14 = ORIENTED_EDGE ( 'NONE', *, *, #104, .F. ) ;
#15 = DIRECTION ( 'NONE',  ( 0.0000000000000000000, -0.0000000000000000000, 1.000000000000000000 ) ) ;
#16 = LINE ( 'NONE', #89, #127 ) ;
#17 = ORIENTED_EDGE ( 'NONE', *, *, #6, .F. ) ;
#18 = CARTESIAN_POINT ( 'NONE',  ( 4.750000000000000000, 0.0000000000000000000, 0.0000000000000000000 ) ) ;
#19 = AXIS2_PLACEMENT_3D ( 'NONE', #226, #88, #210 ) ;
#20 = APPLICATION_PROTOCOL_DEFINITION ( 'international standard', 'config_control_design', 1994, #146 ) ;
#21 = FACE_OUTER_BOUND ( 'NONE', #123, .T. ) ;
#22 =( NAMED_UNIT ( * ) SI_UNIT ( $, .STERADIAN. ) SOLID_ANGLE_UNIT ( ) );
#23 = MANIFOLD_SOLID_BREP ( 'Boss-Extrude1', #205 ) ;
#24 = PRODUCT_DEFINITION ( 'UNKNOWN', '', #130, #5 ) ;
#25 = COORDINATED_UNIVERSAL_TIME_OFFSET ( 5, 0, .BEHIND. ) ;
#26 = VECTOR ( 'NONE', #57, 1000.000000000000000 ) ;
#27 = ORIENTED_EDGE ( 'NONE', *, *, #6, .T. ) ;
#28 = CC_DESIGN_PERSON_AND_ORGANIZATION_ASSIGNMENT ( #66, #121, ( #130 ) ) ;
#29 = AXIS2_PLACEMENT_3D ( 'NONE', #18, #236, #74 ) ;
#30 = CARTESIAN_POINT ( 'NONE',  ( 4.750000000000000000, -25.00000000000001100, -25.00000000000000000 ) ) ;
#31 = LOCAL_TIME ( 15, 14, 49.00000000000000000, #62 ) ;
#32 = PERSON_AND_ORGANIZATION ( #110, #33 ) ;
#33 = ORGANIZATION ( 'UNSPECIFIED', 'UNSPECIFIED', '' ) ;
#34 = ORIENTED_EDGE ( 'NONE', *, *, #59, .T. ) ;
#35 = PLANE ( 'NONE',  #45 ) ;
#36 = PLANE ( 'NONE',  #80 ) ;
#37 = CARTESIAN_POINT ( 'NONE',  ( 4.750000000000000000, 24.99999999999997900, 25.00000000000000000 ) ) ;
#38 =( LENGTH_UNIT ( ) NAMED_UNIT ( * ) SI_UNIT ( .MILLI., .METRE. ) );
#39 =( NAMED_UNIT ( * ) PLANE_ANGLE_UNIT ( ) SI_UNIT ( $, .RADIAN. ) );
#40 = DATE_AND_TIME ( #187, #203 ) ;
#41 = ORIENTED_EDGE ( 'NONE', *, *, #189, .T. ) ;
#42 = AXIS2_PLACEMENT_3D ( 'NONE', #37, #162, #58 ) ;
#43 = PERSON_AND_ORGANIZATION ( #110, #33 ) ;
#44 = FACE_OUTER_BOUND ( 'NONE', #161, .T. ) ;
#45 = AXIS2_PLACEMENT_3D ( 'NONE', #199, #144, #178 ) ;
#46 = LOCAL_TIME ( 15, 14, 49.00000000000000000, #25 ) ;
#47 = LINE ( 'NONE', #196, #234 ) ;
#48 = EDGE_LOOP ( 'NONE', ( #27, #154, #100, #182 ) ) ;
#49 = PLANE ( 'NONE',  #233 ) ;
#50 = ORIENTED_EDGE ( 'NONE', *, *, #165, .F. ) ;
#51 = DIRECTION ( 'NONE',  ( -1.000000000000000000, -0.0000000000000000000, -0.0000000000000000000 ) ) ;
#52 = CC_DESIGN_DATE_AND_TIME_ASSIGNMENT ( #128, #118, ( #4 ) ) ;
#53 = DIRECTION ( 'NONE',  ( -1.000000000000000000, -0.0000000000000000000, -0.0000000000000000000 ) ) ;
#54 =( GEOMETRIC_REPRESENTATION_CONTEXT ( 3 ) GLOBAL_UNCERTAINTY_ASSIGNED_CONTEXT ( ( #109 ) ) GLOBAL_UNIT_ASSIGNED_CONTEXT ( ( #38, #39, #22 ) ) REPRESENTATION_CONTEXT ( 'NONE', 'WORKASPACE' ) );
#55 = CALENDAR_DATE ( 2018, 12, 3 ) ;
#56 = ORIENTED_EDGE ( 'NONE', *, *, #175, .F. ) ;
#57 = DIRECTION ( 'NONE',  ( -0.0000000000000000000, 1.000000000000000000, -0.0000000000000000000 ) ) ;
#58 = DIRECTION ( 'NONE',  ( -1.000000000000000000, 0.0000000000000000000, -0.0000000000000000000 ) ) ;
#59 = EDGE_CURVE ( 'NONE', #70, #69, #96, .T. ) ;
#60 = SECURITY_CLASSIFICATION_LEVEL ( 'unclassified' ) ;
#61 = DATE_TIME_ROLE ( 'creation_date' ) ;
#62 = COORDINATED_UNIVERSAL_TIME_OFFSET ( 5, 0, .BEHIND. ) ;
#63 = LINE ( 'NONE', #180, #26 ) ;
#64 = VECTOR ( 'NONE', #212, 1000.000000000000000 ) ;
#65 = VERTEX_POINT ( 'NONE', #228 ) ;
#66 = PERSON_AND_ORGANIZATION ( #110, #33 ) ;
#67 = APPROVAL_PERSON_ORGANIZATION ( #43, #232, #101 ) ;
#68 = LINE ( 'NONE', #160, #152 ) ;
#69 = VERTEX_POINT ( 'NONE', #30 ) ;
#70 = VERTEX_POINT ( 'NONE', #227 ) ;
#71 = DIRECTION ( 'NONE',  ( -0.0000000000000000000, -2.775557561562891400E-016, 1.000000000000000000 ) ) ;
#72 = CARTESIAN_POINT ( 'NONE',  ( 4.750000000000000000, -25.00000000000001100, -25.00000000000000000 ) ) ;
#73 = ORIENTED_EDGE ( 'NONE', *, *, #171, .F. ) ;
#74 = DIRECTION ( 'NONE',  ( 0.0000000000000000000, 0.0000000000000000000, -1.000000000000000000 ) ) ;
#75 = VERTEX_POINT ( 'NONE', #155 ) ;
#76 = APPROVAL_STATUS ( 'not_yet_approved' ) ;
#77 = CARTESIAN_POINT ( 'NONE',  ( 4.750000000000000000, 24.99999999999997900, 25.00000000000000000 ) ) ;
#78 = APPROVAL_ROLE ( '' ) ;
#79 = APPROVAL_ROLE ( '' ) ;
#80 = AXIS2_PLACEMENT_3D ( 'NONE', #183, #217, #15 ) ;
#81 = APPLICATION_PROTOCOL_DEFINITION ( 'international standard', 'config_control_design', 1994, #202 ) ;
#82 = PRODUCT_RELATED_PRODUCT_CATEGORY ( 'detail', '', ( #8 ) ) ;
#83 = VECTOR ( 'NONE', #98, 1000.000000000000000 ) ;
#84 = APPROVAL_DATE_TIME ( #135, #150 ) ;
#85 = APPROVAL_PERSON_ORGANIZATION ( #129, #125, #79 ) ;
#86 = SHAPE_DEFINITION_REPRESENTATION ( #112, #211 ) ;
#87 = CC_DESIGN_PERSON_AND_ORGANIZATION_ASSIGNMENT ( #170, #184, ( #8 ) ) ;
#88 = DIRECTION ( 'NONE',  ( 1.000000000000000000, 0.0000000000000000000, 0.0000000000000000000 ) ) ;
#89 = CARTESIAN_POINT ( 'NONE',  ( 4.750000000000000000, 24.99999999999998900, -25.00000000000000000 ) ) ;
#90 = ORIENTED_EDGE ( 'NONE', *, *, #189, .F. ) ;
#91 = CARTESIAN_POINT ( 'NONE',  ( 4.750000000000000000, 24.99999999999998900, -25.00000000000000000 ) ) ;
#92 = CALENDAR_DATE ( 2018, 12, 3 ) ;
#93 = CARTESIAN_POINT ( 'NONE',  ( 4.750000000000000000, -25.00000000000001100, 25.00000000000000000 ) ) ;
#94 = ORIENTED_EDGE ( 'NONE', *, *, #224, .F. ) ;
#95 = CARTESIAN_POINT ( 'NONE',  ( -4.750000000000000000, -25.00000000000001100, 25.00000000000000000 ) ) ;
#96 = LINE ( 'NONE', #197, #213 ) ;
#97 = PLANE ( 'NONE',  #29 ) ;
#98 = DIRECTION ( 'NONE',  ( 0.0000000000000000000, -1.000000000000000000, 0.0000000000000000000 ) ) ;
#99 = PERSON_AND_ORGANIZATION ( #110, #33 ) ;
#100 = ORIENTED_EDGE ( 'NONE', *, *, #139, .F. ) ;
#101 = APPROVAL_ROLE ( '' ) ;
#102 = MECHANICAL_CONTEXT ( 'NONE', #146, 'mechanical' ) ;
#103 = DATE_AND_TIME ( #55, #219 ) ;
#104 = EDGE_CURVE ( 'NONE', #225, #70, #47, .T. ) ;
#105 = VERTEX_POINT ( 'NONE', #141 ) ;
#106 = FACE_OUTER_BOUND ( 'NONE', #235, .T. ) ;
#107 = ORIENTED_EDGE ( 'NONE', *, *, #104, .T. ) ;
#108 = DIRECTION ( 'NONE',  ( 0.0000000000000000000, -1.000000000000000000, 0.0000000000000000000 ) ) ;
#109 = UNCERTAINTY_MEASURE_WITH_UNIT (LENGTH_MEASURE( 1.000000000000000100E-005 ), #38, 'distance_accuracy_value', 'NONE');
#110 = PERSON ( 'UNSPECIFIED', 'UNSPECIFIED', 'UNSPECIFIED', ('UNSPECIFIED'), ('UNSPECIFIED'), ('UNSPECIFIED') ) ;
#111 = PERSON_AND_ORGANIZATION ( #110, #33 ) ;
#112 = PRODUCT_DEFINITION_SHAPE ( 'NONE', 'NONE',  #24 ) ;
#113 = VECTOR ( 'NONE', #71, 1000.000000000000000 ) ;
#114 = ORIENTED_EDGE ( 'NONE', *, *, #136, .T. ) ;
#115 = VECTOR ( 'NONE', #51, 1000.000000000000000 ) ;
#116 = LINE ( 'NONE', #13, #64 ) ;
#117 = PLANE ( 'NONE',  #42 ) ;
#118 = DATE_TIME_ROLE ( 'classification_date' ) ;
#119 = LINE ( 'NONE', #72, #216 ) ;
#120 = EDGE_LOOP ( 'NONE', ( #149, #50, #220, #133 ) ) ;
#121 = PERSON_AND_ORGANIZATION_ROLE ( 'creator' ) ;
#122 = FACE_OUTER_BOUND ( 'NONE', #48, .T. ) ;
#123 = EDGE_LOOP ( 'NONE', ( #94, #17, #90, #56 ) ) ;
#124 = LINE ( 'NONE', #159, #113 ) ;
#125 = APPROVAL ( #166, 'UNSPECIFIED' ) ;
#126 = APPROVAL_PERSON_ORGANIZATION ( #111, #150, #78 ) ;
#127 = VECTOR ( 'NONE', #214, 1000.000000000000000 ) ;
#128 = DATE_AND_TIME ( #167, #31 ) ;
#129 = PERSON_AND_ORGANIZATION ( #110, #33 ) ;
#130 = PRODUCT_DEFINITION_FORMATION_WITH_SPECIFIED_SOURCE ( 'ANY', '', #8, .NOT_KNOWN. ) ;
#131 = DIRECTION ( 'NONE',  ( 0.0000000000000000000, 0.0000000000000000000, -1.000000000000000000 ) ) ;
#132 = LINE ( 'NONE', #93, #115 ) ;
#133 = ORIENTED_EDGE ( 'NONE', *, *, #156, .T. ) ;
#134 = DIRECTION ( 'NONE',  ( 1.000000000000000000, 0.0000000000000000000, 0.0000000000000000000 ) ) ;
#135 = DATE_AND_TIME ( #92, #46 ) ;
#136 = EDGE_CURVE ( 'NONE', #225, #177, #116, .T. ) ;
#137 = ORIENTED_EDGE ( 'NONE', *, *, #165, .T. ) ;
#138 = ADVANCED_FACE ( 'NONE', ( #21 ), #194, .F. ) ;
#139 = EDGE_CURVE ( 'NONE', #65, #225, #124, .T. ) ;
#140 = CC_DESIGN_PERSON_AND_ORGANIZATION_ASSIGNMENT ( #201, #147, ( #4 ) ) ;
#141 = CARTESIAN_POINT ( 'NONE',  ( -4.750000000000000000, -25.00000000000001100, -25.00000000000000000 ) ) ;
#142 = CARTESIAN_POINT ( 'NONE',  ( -4.750000000000000000, 24.99999999999997900, 25.00000000000000000 ) ) ;
#143 = CARTESIAN_POINT ( 'NONE',  ( -4.750000000000000000, -25.00000000000001100, 25.00000000000000000 ) ) ;
#144 = DIRECTION ( 'NONE',  ( 0.0000000000000000000, -1.000000000000000000, -2.775557561562891400E-016 ) ) ;
#145 = ORIENTED_EDGE ( 'NONE', *, *, #221, .F. ) ;
#146 = APPLICATION_CONTEXT ( 'configuration controlled 3d designs of mechanical parts and assemblies' ) ;
#147 = PERSON_AND_ORGANIZATION_ROLE ( 'classification_officer' ) ;
#148 = FACE_OUTER_BOUND ( 'NONE', #120, .T. ) ;
#149 = ORIENTED_EDGE ( 'NONE', *, *, #175, .T. ) ;
#150 = APPROVAL ( #218, 'UNSPECIFIED' ) ;
#151 = ADVANCED_FACE ( 'NONE', ( #44 ), #49, .F. ) ;
#152 = VECTOR ( 'NONE', #53, 1000.000000000000000 ) ;
#153 = CC_DESIGN_DATE_AND_TIME_ASSIGNMENT ( #103, #61, ( #24 ) ) ;
#154 = ORIENTED_EDGE ( 'NONE', *, *, #136, .F. ) ;
#155 = CARTESIAN_POINT ( 'NONE',  ( -4.750000000000000000, 24.99999999999998900, -25.00000000000000000 ) ) ;
#156 = EDGE_CURVE ( 'NONE', #70, #207, #132, .T. ) ;
#157 = DIRECTION ( 'NONE',  ( -1.000000000000000000, -0.0000000000000000000, -0.0000000000000000000 ) ) ;
#158 = EDGE_LOOP ( 'NONE', ( #192, #185, #14, #114 ) ) ;
#159 = CARTESIAN_POINT ( 'NONE',  ( 4.750000000000000000, 24.99999999999997900, 25.00000000000000000 ) ) ;
#160 = CARTESIAN_POINT ( 'NONE',  ( 4.750000000000000000, 24.99999999999998900, -25.00000000000000000 ) ) ;
#161 = EDGE_LOOP ( 'NONE', ( #41, #145, #73, #137 ) ) ;
#162 = DIRECTION ( 'NONE',  ( 0.0000000000000000000, 0.0000000000000000000, -1.000000000000000000 ) ) ;
#163 = PERSON_AND_ORGANIZATION_ROLE ( 'creator' ) ;
#164 = CARTESIAN_POINT ( 'NONE',  ( -4.750000000000000000, 24.99999999999997900, 25.00000000000000000 ) ) ;
#165 = EDGE_CURVE ( 'NONE', #69, #105, #119, .T. ) ;
#166 = APPROVAL_STATUS ( 'not_yet_approved' ) ;
#167 = CALENDAR_DATE ( 2018, 12, 3 ) ;
#168 = VECTOR ( 'NONE', #9, 1000.000000000000000 ) ;
#169 = ADVANCED_FACE ( 'NONE', ( #122 ), #35, .F. ) ;
#170 = PERSON_AND_ORGANIZATION ( #110, #33 ) ;
#171 = EDGE_CURVE ( 'NONE', #69, #65, #16, .T. ) ;
#172 = LINE ( 'NONE', #164, #83 ) ;
#173 = DIRECTION ( 'NONE',  ( 0.0000000000000000000, 0.0000000000000000000, -1.000000000000000000 ) ) ;
#174 = DIRECTION ( 'NONE',  ( 1.000000000000000000, 0.0000000000000000000, 0.0000000000000000000 ) ) ;
#175 = EDGE_CURVE ( 'NONE', #207, #105, #223, .T. ) ;
#176 = VECTOR ( 'NONE', #131, 1000.000000000000000 ) ;
#177 = VERTEX_POINT ( 'NONE', #179 ) ;
#178 = DIRECTION ( 'NONE',  ( 0.0000000000000000000, 2.775557561562891400E-016, -1.000000000000000000 ) ) ;
#179 = CARTESIAN_POINT ( 'NONE',  ( -4.750000000000000000, 24.99999999999997900, 25.00000000000000000 ) ) ;
#180 = CARTESIAN_POINT ( 'NONE',  ( -4.750000000000000000, 24.99999999999998900, -25.00000000000000000 ) ) ;
#181 = CC_DESIGN_APPROVAL ( #125, ( #24 ) ) ;
#182 = ORIENTED_EDGE ( 'NONE', *, *, #221, .T. ) ;
#183 = CARTESIAN_POINT ( 'NONE',  ( 4.750000000000000000, -25.00000000000001100, 25.00000000000000000 ) ) ;
#184 = PERSON_AND_ORGANIZATION_ROLE ( 'design_owner' ) ;
#185 = ORIENTED_EDGE ( 'NONE', *, *, #156, .F. ) ;
#186 = DIRECTION ( 'NONE',  ( 0.0000000000000000000, 0.0000000000000000000, 1.000000000000000000 ) ) ;
#187 = CALENDAR_DATE ( 2018, 12, 3 ) ;
#188 = ORIENTED_EDGE ( 'NONE', *, *, #139, .T. ) ;
#189 = EDGE_CURVE ( 'NONE', #105, #75, #63, .T. ) ;
#190 = DATE_AND_TIME ( #191, #2 ) ;
#191 = CALENDAR_DATE ( 2018, 12, 3 ) ;
#192 = ORIENTED_EDGE ( 'NONE', *, *, #224, .T. ) ;
#193 = ADVANCED_FACE ( 'NONE', ( #106 ), #97, .T. ) ;
#194 = PLANE ( 'NONE',  #19 ) ;
#195 = CC_DESIGN_PERSON_AND_ORGANIZATION_ASSIGNMENT ( #32, #163, ( #24 ) ) ;
#196 = CARTESIAN_POINT ( 'NONE',  ( 4.750000000000000000, 24.99999999999997900, 25.00000000000000000 ) ) ;
#197 = CARTESIAN_POINT ( 'NONE',  ( 4.750000000000000000, -25.00000000000001100, 25.00000000000000000 ) ) ;
#198 = CC_DESIGN_APPROVAL ( #232, ( #130 ) ) ;
#199 = CARTESIAN_POINT ( 'NONE',  ( 4.750000000000000000, 24.99999999999997900, 25.00000000000000000 ) ) ;
#200 = APPROVAL_DATE_TIME ( #40, #125 ) ;
#201 = PERSON_AND_ORGANIZATION ( #110, #33 ) ;
#202 = APPLICATION_CONTEXT ( 'configuration controlled 3d designs of mechanical parts and assemblies' ) ;
#203 = LOCAL_TIME ( 15, 14, 49.00000000000000000, #12 ) ;
#204 = ADVANCED_FACE ( 'NONE', ( #222 ), #117, .F. ) ;
#205 = CLOSED_SHELL ( 'NONE', ( #204, #206, #151, #169, #193, #138 ) ) ;
#206 = ADVANCED_FACE ( 'NONE', ( #148 ), #36, .F. ) ;
#207 = VERTEX_POINT ( 'NONE', #143 ) ;
#208 = CC_DESIGN_SECURITY_CLASSIFICATION ( #4, ( #130 ) ) ;
#209 = AXIS2_PLACEMENT_3D ( 'NONE', #237, #186, #134 ) ;
#210 = DIRECTION ( 'NONE',  ( 0.0000000000000000000, 0.0000000000000000000, -1.000000000000000000 ) ) ;
#211 = ADVANCED_BREP_SHAPE_REPRESENTATION ( 'Web Model 43214_43214', ( #23, #209 ), #54 ) ;
#212 = DIRECTION ( 'NONE',  ( -1.000000000000000000, -0.0000000000000000000, -0.0000000000000000000 ) ) ;
#213 = VECTOR ( 'NONE', #173, 1000.000000000000000 ) ;
#214 = DIRECTION ( 'NONE',  ( -0.0000000000000000000, 1.000000000000000000, -0.0000000000000000000 ) ) ;
#215 = CC_DESIGN_APPROVAL ( #150, ( #4 ) ) ;
#216 = VECTOR ( 'NONE', #157, 1000.000000000000000 ) ;
#217 = DIRECTION ( 'NONE',  ( -0.0000000000000000000, 1.000000000000000000, 0.0000000000000000000 ) ) ;
#218 = APPROVAL_STATUS ( 'not_yet_approved' ) ;
#219 = LOCAL_TIME ( 15, 14, 49.00000000000000000, #229 ) ;
#220 = ORIENTED_EDGE ( 'NONE', *, *, #59, .F. ) ;
#221 = EDGE_CURVE ( 'NONE', #65, #75, #68, .T. ) ;
#222 = FACE_OUTER_BOUND ( 'NONE', #158, .T. ) ;
#223 = LINE ( 'NONE', #95, #176 ) ;
#224 = EDGE_CURVE ( 'NONE', #177, #207, #172, .T. ) ;
#225 = VERTEX_POINT ( 'NONE', #77 ) ;
#226 = CARTESIAN_POINT ( 'NONE',  ( -4.750000000000000000, 0.0000000000000000000, 0.0000000000000000000 ) ) ;
#227 = CARTESIAN_POINT ( 'NONE',  ( 4.750000000000000000, -25.00000000000001100, 25.00000000000000000 ) ) ;
#228 = CARTESIAN_POINT ( 'NONE',  ( 4.750000000000000000, 24.99999999999998900, -25.00000000000000000 ) ) ;
#229 = COORDINATED_UNIVERSAL_TIME_OFFSET ( 5, 0, .BEHIND. ) ;
#230 = LINE ( 'NONE', #142, #168 ) ;
#231 = ORIENTED_EDGE ( 'NONE', *, *, #171, .T. ) ;
#232 = APPROVAL ( #76, 'UNSPECIFIED' ) ;
#233 = AXIS2_PLACEMENT_3D ( 'NONE', #91, #10, #174 ) ;
#234 = VECTOR ( 'NONE', #108, 1000.000000000000000 ) ;
#235 = EDGE_LOOP ( 'NONE', ( #107, #34, #231, #188 ) ) ;
#236 = DIRECTION ( 'NONE',  ( 1.000000000000000000, 0.0000000000000000000, 0.0000000000000000000 ) ) ;
#237 = CARTESIAN_POINT ( 'NONE',  ( 0.0000000000000000000, 0.0000000000000000000, 0.0000000000000000000 ) ) ;
ENDSEC;
END-ISO-10303-21;
