ISO-10303-21;
HEADER;
FILE_DESCRIPTION (( 'STEP AP203' ),
    '1' );
FILE_NAME ('Web Model 17171_17181.step',
    '2021-08-09T15:05:06',
    ( '' ),
    ( '' ),
    'SwSTEP 2.0',
    'SolidWorks 2018',
    '' );
FILE_SCHEMA (( 'CONFIG_CONTROL_DESIGN' ));
ENDSEC;

DATA;
#1 = APPROVAL_PERSON_ORGANIZATION ( #64, #49, #134 ) ;
#2 = ORIENTED_EDGE ( 'NONE', *, *, #132, .F. ) ;
#3 = DATE_AND_TIME ( #31, #98 ) ;
#4 = APPLICATION_CONTEXT ( 'configuration controlled 3d designs of mechanical parts and assemblies' ) ;
#5 = VERTEX_POINT ( 'NONE', #113 ) ;
#6 = CARTESIAN_POINT ( 'NONE',  ( 0.000000000000000000, 0.000000000000000000, 0.1574803149606299191 ) ) ;
#7 = SECURITY_CLASSIFICATION_LEVEL ( 'unclassified' ) ;
#8 = EDGE_LOOP ( 'NONE', ( #10, #63 ) ) ;
#9 = ADVANCED_BREP_SHAPE_REPRESENTATION ( 'Web Model 17171_17181', ( #20, #41 ), #88 ) ;
#10 = ORIENTED_EDGE ( 'NONE', *, *, #59, .F. ) ;
#11 = CARTESIAN_POINT ( 'NONE',  ( 0.000000000000000000, 0.000000000000000000, 0.000000000000000000 ) ) ;
#12 =( CONVERSION_BASED_UNIT ( 'INCH', #149 ) LENGTH_UNIT ( ) NAMED_UNIT ( #144 ) );
#13 = APPROVAL_STATUS ( 'not_yet_approved' ) ;
#14 = CARTESIAN_POINT ( 'NONE',  ( 0.000000000000000000, 0.000000000000000000, 0.1574803149606299191 ) ) ;
#15 = CC_DESIGN_PERSON_AND_ORGANIZATION_ASSIGNMENT ( #140, #70, ( #32 ) ) ;
#16 = ORIENTED_EDGE ( 'NONE', *, *, #73, .F. ) ;
#17 = DIRECTION ( 'NONE',  ( 0.000000000000000000, 0.000000000000000000, 1.000000000000000000 ) ) ;
#18 = PRODUCT_DEFINITION_SHAPE ( 'NONE', 'NONE',  #69 ) ;
#19 = DESIGN_CONTEXT ( 'detailed design', #4, 'design' ) ;
#20 = MANIFOLD_SOLID_BREP ( 'Boss-Extrude1', #48 ) ;
#21 = PRODUCT_RELATED_PRODUCT_CATEGORY ( 'detail', '', ( #151 ) ) ;
#22 = ORIENTED_EDGE ( 'NONE', *, *, #78, .F. ) ;
#23 = LINE ( 'NONE', #105, #79 ) ;
#24 = DATE_TIME_ROLE ( 'creation_date' ) ;
#25 = AXIS2_PLACEMENT_3D ( 'NONE', #46, #164, #160 ) ;
#26 = DIRECTION ( 'NONE',  ( 1.000000000000000000, 0.000000000000000000, -0.000000000000000000 ) ) ;
#27 = AXIS2_PLACEMENT_3D ( 'NONE', #72, #137, #172 ) ;
#28 = CARTESIAN_POINT ( 'NONE',  ( 2.952755905511811552, 3.616083068348484413E-16, 0.1574803149606299191 ) ) ;
#29 = LOCAL_TIME ( 11, 5, 6.000000000000000000, #176 ) ;
#30 = FACE_OUTER_BOUND ( 'NONE', #8, .T. ) ;
#31 = CALENDAR_DATE ( 2021, 9, 8 ) ;
#32 = SECURITY_CLASSIFICATION ( '', '', #7 ) ;
#33 =( NAMED_UNIT ( * ) SI_UNIT ( $, .STERADIAN. ) SOLID_ANGLE_UNIT ( ) );
#34 = PERSON_AND_ORGANIZATION_ROLE ( 'creator' ) ;
#35 = DIRECTION ( 'NONE',  ( 1.000000000000000000, 0.000000000000000000, 0.000000000000000000 ) ) ;
#36 = ADVANCED_FACE ( 'NONE', ( #154 ), #178, .T. ) ;
#37 = APPLICATION_CONTEXT ( 'configuration controlled 3d designs of mechanical parts and assemblies' ) ;
#38 = DATE_AND_TIME ( #58, #127 ) ;
#39 = EDGE_LOOP ( 'NONE', ( #16, #111, #175, #2 ) ) ;
#40 = EDGE_LOOP ( 'NONE', ( #133, #75 ) ) ;
#41 = AXIS2_PLACEMENT_3D ( 'NONE', #44, #55, #83 ) ;
#42 = CARTESIAN_POINT ( 'NONE',  ( 2.952755905511811552, 3.616083068348484413E-16, 0.000000000000000000 ) ) ;
#43 = DIRECTION ( 'NONE',  ( 1.000000000000000000, 0.000000000000000000, 0.000000000000000000 ) ) ;
#44 = CARTESIAN_POINT ( 'NONE',  ( 0.000000000000000000, 0.000000000000000000, 0.000000000000000000 ) ) ;
#45 = APPROVAL_ROLE ( '' ) ;
#46 = CARTESIAN_POINT ( 'NONE',  ( 0.000000000000000000, 0.000000000000000000, 0.1574803149606299191 ) ) ;
#47 = CARTESIAN_POINT ( 'NONE',  ( 0.000000000000000000, 0.000000000000000000, 0.000000000000000000 ) ) ;
#48 = CLOSED_SHELL ( 'NONE', ( #97, #108, #36, #161 ) ) ;
#49 = APPROVAL ( #54, 'UNSPECIFIED' ) ;
#50 = DIRECTION ( 'NONE',  ( -0.000000000000000000, -0.000000000000000000, -1.000000000000000000 ) ) ;
#51 = CYLINDRICAL_SURFACE ( 'NONE', #76, 2.952755905511811552 ) ;
#52 = DIRECTION ( 'NONE',  ( -1.000000000000000000, 0.000000000000000000, 0.000000000000000000 ) ) ;
#53 = APPROVAL ( #13, 'UNSPECIFIED' ) ;
#54 = APPROVAL_STATUS ( 'not_yet_approved' ) ;
#55 = DIRECTION ( 'NONE',  ( 0.000000000000000000, 0.000000000000000000, 1.000000000000000000 ) ) ;
#56 = CC_DESIGN_APPROVAL ( #49, ( #32 ) ) ;
#57 = PERSON_AND_ORGANIZATION_ROLE ( 'creator' ) ;
#58 = CALENDAR_DATE ( 2021, 9, 8 ) ;
#59 = EDGE_CURVE ( 'NONE', #5, #142, #89, .T. ) ;
#60 = DATE_AND_TIME ( #167, #29 ) ;
#61 = PERSON_AND_ORGANIZATION ( #65, #104 ) ;
#62 = PERSON_AND_ORGANIZATION_ROLE ( 'design_owner' ) ;
#63 = ORIENTED_EDGE ( 'NONE', *, *, #155, .F. ) ;
#64 = PERSON_AND_ORGANIZATION ( #65, #104 ) ;
#65 = PERSON ( 'UNSPECIFIED', 'UNSPECIFIED', 'UNSPECIFIED', ('UNSPECIFIED'), ('UNSPECIFIED'), ('UNSPECIFIED') ) ;
#66 = CC_DESIGN_SECURITY_CLASSIFICATION ( #32, ( #166 ) ) ;
#67 = SHAPE_DEFINITION_REPRESENTATION ( #18, #9 ) ;
#68 = APPROVAL_DATE_TIME ( #101, #157 ) ;
#69 = PRODUCT_DEFINITION ( 'UNKNOWN', '', #166, #19 ) ;
#70 = PERSON_AND_ORGANIZATION_ROLE ( 'classification_officer' ) ;
#71 = COORDINATED_UNIVERSAL_TIME_OFFSET ( 5, 0, .BEHIND. ) ;
#72 = CARTESIAN_POINT ( 'NONE',  ( 0.000000000000000000, 0.000000000000000000, 0.000000000000000000 ) ) ;
#73 = EDGE_CURVE ( 'NONE', #87, #143, #115, .T. ) ;
#74 = CC_DESIGN_PERSON_AND_ORGANIZATION_ASSIGNMENT ( #135, #77, ( #166 ) ) ;
#75 = ORIENTED_EDGE ( 'NONE', *, *, #73, .T. ) ;
#76 = AXIS2_PLACEMENT_3D ( 'NONE', #6, #50, #52 ) ;
#77 = PERSON_AND_ORGANIZATION_ROLE ( 'design_supplier' ) ;
#78 = EDGE_CURVE ( 'NONE', #143, #87, #129, .T. ) ;
#79 = VECTOR ( 'NONE', #156, 39.37007874015748143 ) ;
#80 = CC_DESIGN_DATE_AND_TIME_ASSIGNMENT ( #60, #170, ( #32 ) ) ;
#81 =( NAMED_UNIT ( * ) PLANE_ANGLE_UNIT ( ) SI_UNIT ( $, .RADIAN. ) );
#82 = AXIS2_PLACEMENT_3D ( 'NONE', #11, #118, #107 ) ;
#83 = DIRECTION ( 'NONE',  ( 1.000000000000000000, 0.000000000000000000, 0.000000000000000000 ) ) ;
#84 = FACE_OUTER_BOUND ( 'NONE', #94, .T. ) ;
#85 = AXIS2_PLACEMENT_3D ( 'NONE', #122, #139, #96 ) ;
#86 = UNCERTAINTY_MEASURE_WITH_UNIT (LENGTH_MEASURE( 1.000000000000000082E-05 ), #12, 'distance_accuracy_value', 'NONE');
#87 = VERTEX_POINT ( 'NONE', #145 ) ;
#88 =( GEOMETRIC_REPRESENTATION_CONTEXT ( 3 ) GLOBAL_UNCERTAINTY_ASSIGNED_CONTEXT ( ( #86 ) ) GLOBAL_UNIT_ASSIGNED_CONTEXT ( ( #12, #81, #33 ) ) REPRESENTATION_CONTEXT ( 'NONE', 'WORKASPACE' ) );
#89 = CIRCLE ( 'NONE', #110, 2.952755905511811552 ) ;
#90 = DATE_AND_TIME ( #121, #106 ) ;
#91 = APPLICATION_PROTOCOL_DEFINITION ( 'international standard', 'config_control_design', 1994, #4 ) ;
#92 = APPROVAL_ROLE ( '' ) ;
#93 = PERSON_AND_ORGANIZATION ( #65, #104 ) ;
#94 = EDGE_LOOP ( 'NONE', ( #99, #22, #169, #114 ) ) ;
#95 = CC_DESIGN_DATE_AND_TIME_ASSIGNMENT ( #38, #24, ( #69 ) ) ;
#96 = DIRECTION ( 'NONE',  ( -1.000000000000000000, 0.000000000000000000, 0.000000000000000000 ) ) ;
#97 = ADVANCED_FACE ( 'NONE', ( #119 ), #165, .T. ) ;
#98 = LOCAL_TIME ( 11, 5, 6.000000000000000000, #71 ) ;
#99 = ORIENTED_EDGE ( 'NONE', *, *, #173, .F. ) ;
#100 = CARTESIAN_POINT ( 'NONE',  ( 0.000000000000000000, 0.000000000000000000, 0.1574803149606299191 ) ) ;
#101 = DATE_AND_TIME ( #103, #147 ) ;
#102 = APPROVAL_PERSON_ORGANIZATION ( #153, #53, #45 ) ;
#103 = CALENDAR_DATE ( 2021, 9, 8 ) ;
#104 = ORGANIZATION ( 'UNSPECIFIED', 'UNSPECIFIED', '' ) ;
#105 = CARTESIAN_POINT ( 'NONE',  ( -2.952755905511811552, 0.000000000000000000, 0.1574803149606299191 ) ) ;
#106 = LOCAL_TIME ( 11, 5, 6.000000000000000000, #130 ) ;
#107 = DIRECTION ( 'NONE',  ( 1.000000000000000000, 0.000000000000000000, -0.000000000000000000 ) ) ;
#108 = ADVANCED_FACE ( 'NONE', ( #84 ), #51, .T. ) ;
#109 = DIRECTION ( 'NONE',  ( 0.000000000000000000, 0.000000000000000000, 1.000000000000000000 ) ) ;
#110 = AXIS2_PLACEMENT_3D ( 'NONE', #47, #109, #35 ) ;
#111 = ORIENTED_EDGE ( 'NONE', *, *, #173, .T. ) ;
#112 = AXIS2_PLACEMENT_3D ( 'NONE', #100, #17, #43 ) ;
#113 = CARTESIAN_POINT ( 'NONE',  ( -2.952755905511811552, 0.000000000000000000, 0.000000000000000000 ) ) ;
#114 = ORIENTED_EDGE ( 'NONE', *, *, #59, .T. ) ;
#115 = CIRCLE ( 'NONE', #25, 2.952755905511811552 ) ;
#116 = CC_DESIGN_PERSON_AND_ORGANIZATION_ASSIGNMENT ( #158, #62, ( #151 ) ) ;
#117 = PLANE ( 'NONE',  #82 ) ;
#118 = DIRECTION ( 'NONE',  ( 0.000000000000000000, 0.000000000000000000, 1.000000000000000000 ) ) ;
#119 = FACE_OUTER_BOUND ( 'NONE', #39, .T. ) ;
#120 = CARTESIAN_POINT ( 'NONE',  ( -2.952755905511811552, 0.000000000000000000, 0.1574803149606299191 ) ) ;
#121 = CALENDAR_DATE ( 2021, 9, 8 ) ;
#122 = CARTESIAN_POINT ( 'NONE',  ( 0.000000000000000000, 0.000000000000000000, 0.1574803149606299191 ) ) ;
#123 = VECTOR ( 'NONE', #152, 39.37007874015748143 ) ;
#124 = APPROVAL_DATE_TIME ( #90, #49 ) ;
#125 = APPLICATION_PROTOCOL_DEFINITION ( 'international standard', 'config_control_design', 1994, #37 ) ;
#126 = CC_DESIGN_APPROVAL ( #157, ( #166 ) ) ;
#127 = LOCAL_TIME ( 11, 5, 6.000000000000000000, #131 ) ;
#128 = CC_DESIGN_PERSON_AND_ORGANIZATION_ASSIGNMENT ( #93, #57, ( #69 ) ) ;
#129 = CIRCLE ( 'NONE', #112, 2.952755905511811552 ) ;
#130 = COORDINATED_UNIVERSAL_TIME_OFFSET ( 5, 0, .BEHIND. ) ;
#131 = COORDINATED_UNIVERSAL_TIME_OFFSET ( 5, 0, .BEHIND. ) ;
#132 = EDGE_CURVE ( 'NONE', #143, #5, #23, .T. ) ;
#133 = ORIENTED_EDGE ( 'NONE', *, *, #78, .T. ) ;
#134 = APPROVAL_ROLE ( '' ) ;
#135 = PERSON_AND_ORGANIZATION ( #65, #104 ) ;
#136 =( LENGTH_UNIT ( ) NAMED_UNIT ( * ) SI_UNIT ( $, .METRE. ) );
#137 = DIRECTION ( 'NONE',  ( 0.000000000000000000, 0.000000000000000000, 1.000000000000000000 ) ) ;
#138 = CC_DESIGN_PERSON_AND_ORGANIZATION_ASSIGNMENT ( #171, #34, ( #166 ) ) ;
#139 = DIRECTION ( 'NONE',  ( -0.000000000000000000, -0.000000000000000000, -1.000000000000000000 ) ) ;
#140 = PERSON_AND_ORGANIZATION ( #65, #104 ) ;
#141 = COORDINATED_UNIVERSAL_TIME_OFFSET ( 5, 0, .BEHIND. ) ;
#142 = VERTEX_POINT ( 'NONE', #42 ) ;
#143 = VERTEX_POINT ( 'NONE', #120 ) ;
#144 = DIMENSIONAL_EXPONENTS ( 1.000000000000000000, 0.000000000000000000, 0.000000000000000000, 0.000000000000000000, 0.000000000000000000, 0.000000000000000000, 0.000000000000000000 ) ;
#145 = CARTESIAN_POINT ( 'NONE',  ( 2.952755905511811552, 3.616083068348484413E-16, 0.1574803149606299191 ) ) ;
#146 = DIRECTION ( 'NONE',  ( 0.000000000000000000, 0.000000000000000000, 1.000000000000000000 ) ) ;
#147 = LOCAL_TIME ( 11, 5, 6.000000000000000000, #141 ) ;
#148 = CC_DESIGN_APPROVAL ( #53, ( #69 ) ) ;
#149 = LENGTH_MEASURE_WITH_UNIT ( LENGTH_MEASURE( 0.02539999999999999897 ), #136 );
#150 = MECHANICAL_CONTEXT ( 'NONE', #37, 'mechanical' ) ;
#151 = PRODUCT ( 'Web Model 17171_17181', 'Web Model 17171_17181', '', ( #150 ) ) ;
#152 = DIRECTION ( 'NONE',  ( -0.000000000000000000, -0.000000000000000000, -1.000000000000000000 ) ) ;
#153 = PERSON_AND_ORGANIZATION ( #65, #104 ) ;
#154 = FACE_OUTER_BOUND ( 'NONE', #40, .T. ) ;
#155 = EDGE_CURVE ( 'NONE', #142, #5, #162, .T. ) ;
#156 = DIRECTION ( 'NONE',  ( -0.000000000000000000, -0.000000000000000000, -1.000000000000000000 ) ) ;
#157 = APPROVAL ( #159, 'UNSPECIFIED' ) ;
#158 = PERSON_AND_ORGANIZATION ( #65, #104 ) ;
#159 = APPROVAL_STATUS ( 'not_yet_approved' ) ;
#160 = DIRECTION ( 'NONE',  ( 1.000000000000000000, 0.000000000000000000, 0.000000000000000000 ) ) ;
#161 = ADVANCED_FACE ( 'NONE', ( #30 ), #117, .F. ) ;
#162 = CIRCLE ( 'NONE', #27, 2.952755905511811552 ) ;
#163 = AXIS2_PLACEMENT_3D ( 'NONE', #14, #146, #26 ) ;
#164 = DIRECTION ( 'NONE',  ( 0.000000000000000000, 0.000000000000000000, 1.000000000000000000 ) ) ;
#165 = CYLINDRICAL_SURFACE ( 'NONE', #85, 2.952755905511811552 ) ;
#166 = PRODUCT_DEFINITION_FORMATION_WITH_SPECIFIED_SOURCE ( 'ANY', '', #151, .NOT_KNOWN. ) ;
#167 = CALENDAR_DATE ( 2021, 9, 8 ) ;
#168 = LINE ( 'NONE', #28, #123 ) ;
#169 = ORIENTED_EDGE ( 'NONE', *, *, #132, .T. ) ;
#170 = DATE_TIME_ROLE ( 'classification_date' ) ;
#171 = PERSON_AND_ORGANIZATION ( #65, #104 ) ;
#172 = DIRECTION ( 'NONE',  ( 1.000000000000000000, 0.000000000000000000, 0.000000000000000000 ) ) ;
#173 = EDGE_CURVE ( 'NONE', #87, #142, #168, .T. ) ;
#174 = APPROVAL_DATE_TIME ( #3, #53 ) ;
#175 = ORIENTED_EDGE ( 'NONE', *, *, #155, .T. ) ;
#176 = COORDINATED_UNIVERSAL_TIME_OFFSET ( 5, 0, .BEHIND. ) ;
#177 = APPROVAL_PERSON_ORGANIZATION ( #61, #157, #92 ) ;
#178 = PLANE ( 'NONE',  #163 ) ;
ENDSEC;
END-ISO-10303-21;
