ISO-10303-21;
HEADER;
FILE_DESCRIPTION (( 'STEP AP203' ),
    '1' );
FILE_NAME ('Web Model 15467_15468.step',
    '2020-08-11T20:41:31',
    ( '' ),
    ( '' ),
    'SwSTEP 2.0',
    'SolidWorks 2018',
    '' );
FILE_SCHEMA (( 'CONFIG_CONTROL_DESIGN' ));
ENDSEC;

DATA;
#1 = CARTESIAN_POINT ( 'NONE',  ( -5.000000000000000000, 0.0000000000000000000, 0.7500000000000000000 ) ) ;
#2 = AXIS2_PLACEMENT_3D ( 'NONE', #93, #17, #29 ) ;
#3 = APPLICATION_PROTOCOL_DEFINITION ( 'international standard', 'config_control_design', 1994, #140 ) ;
#4 = CALENDAR_DATE ( 2020, 11, 8 ) ;
#5 = PRODUCT_DEFINITION ( 'UNKNOWN', '', #36, #98 ) ;
#6 = PERSON_AND_ORGANIZATION_ROLE ( 'design_supplier' ) ;
#7 = CC_DESIGN_APPROVAL ( #138, ( #88 ) ) ;
#8 = VECTOR ( 'NONE', #76, 1000.000000000000000 ) ;
#9 = CALENDAR_DATE ( 2020, 11, 8 ) ;
#10 = ORIENTED_EDGE ( 'NONE', *, *, #116, .F. ) ;
#11 = CARTESIAN_POINT ( 'NONE',  ( 0.0000000000000000000, 0.0000000000000000000, 0.7500000000000000000 ) ) ;
#12 = CALENDAR_DATE ( 2020, 11, 8 ) ;
#13 = CC_DESIGN_APPROVAL ( #63, ( #5 ) ) ;
#14 = CARTESIAN_POINT ( 'NONE',  ( -5.000000000000000000, 0.0000000000000000000, -0.7500000000000000000 ) ) ;
#15 = ORGANIZATION ( 'UNSPECIFIED', 'UNSPECIFIED', '' ) ;
#16 = CARTESIAN_POINT ( 'NONE',  ( 0.0000000000000000000, 0.0000000000000000000, -0.7500000000000000000 ) ) ;
#17 = DIRECTION ( 'NONE',  ( 0.0000000000000000000, 0.0000000000000000000, 1.000000000000000000 ) ) ;
#18 = PERSON_AND_ORGANIZATION_ROLE ( 'design_owner' ) ;
#19 = ORIENTED_EDGE ( 'NONE', *, *, #157, .T. ) ;
#20 = APPROVAL_ROLE ( '' ) ;
#21 = CALENDAR_DATE ( 2020, 11, 8 ) ;
#22 = CIRCLE ( 'NONE', #2, 5.000000000000000000 ) ;
#23 = EDGE_LOOP ( 'NONE', ( #56, #150, #118, #154 ) ) ;
#24 = CC_DESIGN_PERSON_AND_ORGANIZATION_ASSIGNMENT ( #166, #18, ( #111 ) ) ;
#25 = EDGE_CURVE ( 'NONE', #97, #77, #131, .T. ) ;
#26 = DATE_AND_TIME ( #4, #91 ) ;
#27 = FACE_OUTER_BOUND ( 'NONE', #73, .T. ) ;
#28 = CC_DESIGN_DATE_AND_TIME_ASSIGNMENT ( #102, #159, ( #5 ) ) ;
#29 = DIRECTION ( 'NONE',  ( 1.000000000000000000, 0.0000000000000000000, 0.0000000000000000000 ) ) ;
#30 = APPROVAL_DATE_TIME ( #90, #138 ) ;
#31 = DIRECTION ( 'NONE',  ( 0.0000000000000000000, 0.0000000000000000000, 1.000000000000000000 ) ) ;
#32 = PERSON ( 'UNSPECIFIED', 'UNSPECIFIED', 'UNSPECIFIED', ('UNSPECIFIED'), ('UNSPECIFIED'), ('UNSPECIFIED') ) ;
#33 = APPROVAL_STATUS ( 'not_yet_approved' ) ;
#34 =( LENGTH_UNIT ( ) NAMED_UNIT ( * ) SI_UNIT ( .MILLI., .METRE. ) );
#35 = PERSON_AND_ORGANIZATION ( #32, #15 ) ;
#36 = PRODUCT_DEFINITION_FORMATION_WITH_SPECIFIED_SOURCE ( 'ANY', '', #111, .NOT_KNOWN. ) ;
#37 = FACE_OUTER_BOUND ( 'NONE', #51, .T. ) ;
#38 = DIRECTION ( 'NONE',  ( -1.000000000000000000, 0.0000000000000000000, 0.0000000000000000000 ) ) ;
#39 = APPROVAL_PERSON_ORGANIZATION ( #130, #63, #20 ) ;
#40 = DIRECTION ( 'NONE',  ( -0.0000000000000000000, -0.0000000000000000000, -1.000000000000000000 ) ) ;
#41 = CYLINDRICAL_SURFACE ( 'NONE', #101, 5.000000000000000000 ) ;
#42 = CARTESIAN_POINT ( 'NONE',  ( 0.0000000000000000000, 0.0000000000000000000, 0.7500000000000000000 ) ) ;
#43 = DIRECTION ( 'NONE',  ( 1.000000000000000000, 0.0000000000000000000, 0.0000000000000000000 ) ) ;
#44 = MECHANICAL_CONTEXT ( 'NONE', #140, 'mechanical' ) ;
#45 =( NAMED_UNIT ( * ) PLANE_ANGLE_UNIT ( ) SI_UNIT ( $, .RADIAN. ) );
#46 = COORDINATED_UNIVERSAL_TIME_OFFSET ( 5, 0, .BEHIND. ) ;
#47 = APPROVAL ( #67, 'UNSPECIFIED' ) ;
#48 = CLOSED_SHELL ( 'NONE', ( #61, #145, #120, #171 ) ) ;
#49 = PRODUCT_RELATED_PRODUCT_CATEGORY ( 'detail', '', ( #111 ) ) ;
#50 = DATE_AND_TIME ( #21, #165 ) ;
#51 = EDGE_LOOP ( 'NONE', ( #133, #103, #161, #85 ) ) ;
#52 = PLANE ( 'NONE',  #149 ) ;
#53 = PLANE ( 'NONE',  #126 ) ;
#54 = CARTESIAN_POINT ( 'NONE',  ( 5.000000000000000000, 6.123233995736766282E-16, 0.7500000000000000000 ) ) ;
#55 = CARTESIAN_POINT ( 'NONE',  ( 5.000000000000000000, 6.123233995736766282E-16, -0.7500000000000000000 ) ) ;
#56 = ORIENTED_EDGE ( 'NONE', *, *, #157, .F. ) ;
#57 = CARTESIAN_POINT ( 'NONE',  ( 0.0000000000000000000, 0.0000000000000000000, 0.0000000000000000000 ) ) ;
#58 = DIRECTION ( 'NONE',  ( 0.0000000000000000000, 0.0000000000000000000, 1.000000000000000000 ) ) ;
#59 = APPROVAL_ROLE ( '' ) ;
#60 = LINE ( 'NONE', #54, #8 ) ;
#61 = ADVANCED_FACE ( 'NONE', ( #139 ), #170, .T. ) ;
#62 = UNCERTAINTY_MEASURE_WITH_UNIT (LENGTH_MEASURE( 1.000000000000000082E-05 ), #34, 'distance_accuracy_value', 'NONE');
#63 = APPROVAL ( #96, 'UNSPECIFIED' ) ;
#64 = CARTESIAN_POINT ( 'NONE',  ( 0.0000000000000000000, 0.0000000000000000000, 0.7500000000000000000 ) ) ;
#65 = PERSON_AND_ORGANIZATION ( #32, #15 ) ;
#66 = CARTESIAN_POINT ( 'NONE',  ( 5.000000000000000000, 6.123233995736766282E-16, 0.7500000000000000000 ) ) ;
#67 = APPROVAL_STATUS ( 'not_yet_approved' ) ;
#68 = APPLICATION_CONTEXT ( 'configuration controlled 3d designs of mechanical parts and assemblies' ) ;
#69 = PERSON_AND_ORGANIZATION ( #32, #15 ) ;
#70 = PERSON_AND_ORGANIZATION_ROLE ( 'classification_officer' ) ;
#71 = CC_DESIGN_APPROVAL ( #47, ( #36 ) ) ;
#72 = AXIS2_PLACEMENT_3D ( 'NONE', #64, #122, #135 ) ;
#73 = EDGE_LOOP ( 'NONE', ( #10, #99 ) ) ;
#74 = DIRECTION ( 'NONE',  ( 0.0000000000000000000, 0.0000000000000000000, 1.000000000000000000 ) ) ;
#75 = PRODUCT_DEFINITION_SHAPE ( 'NONE', 'NONE',  #5 ) ;
#76 = DIRECTION ( 'NONE',  ( -0.0000000000000000000, -0.0000000000000000000, -1.000000000000000000 ) ) ;
#77 = VERTEX_POINT ( 'NONE', #14 ) ;
#78 = CC_DESIGN_PERSON_AND_ORGANIZATION_ASSIGNMENT ( #105, #83, ( #36 ) ) ;
#79 = DIRECTION ( 'NONE',  ( -0.0000000000000000000, -0.0000000000000000000, -1.000000000000000000 ) ) ;
#80 = APPLICATION_PROTOCOL_DEFINITION ( 'international standard', 'config_control_design', 1994, #68 ) ;
#81 = SECURITY_CLASSIFICATION_LEVEL ( 'unclassified' ) ;
#82 = DIRECTION ( 'NONE',  ( 1.000000000000000000, 0.0000000000000000000, -0.0000000000000000000 ) ) ;
#83 = PERSON_AND_ORGANIZATION_ROLE ( 'creator' ) ;
#84 = COORDINATED_UNIVERSAL_TIME_OFFSET ( 5, 0, .BEHIND. ) ;
#85 = ORIENTED_EDGE ( 'NONE', *, *, #116, .T. ) ;
#86 = CIRCLE ( 'NONE', #72, 5.000000000000000000 ) ;
#87 = MANIFOLD_SOLID_BREP ( 'Boss-Extrude1', #48 ) ;
#88 = SECURITY_CLASSIFICATION ( '', '', #81 ) ;
#89 = CARTESIAN_POINT ( 'NONE',  ( 0.0000000000000000000, 0.0000000000000000000, 0.7500000000000000000 ) ) ;
#90 = DATE_AND_TIME ( #12, #125 ) ;
#91 = LOCAL_TIME ( 16, 41, 31.00000000000000000, #46 ) ;
#92 = AXIS2_PLACEMENT_3D ( 'NONE', #137, #124, #106 ) ;
#93 = CARTESIAN_POINT ( 'NONE',  ( 0.0000000000000000000, 0.0000000000000000000, -0.7500000000000000000 ) ) ;
#94 = CARTESIAN_POINT ( 'NONE',  ( 0.0000000000000000000, 0.0000000000000000000, 0.7500000000000000000 ) ) ;
#95 = VERTEX_POINT ( 'NONE', #55 ) ;
#96 = APPROVAL_STATUS ( 'not_yet_approved' ) ;
#97 = VERTEX_POINT ( 'NONE', #1 ) ;
#98 = DESIGN_CONTEXT ( 'detailed design', #68, 'design' ) ;
#99 = ORIENTED_EDGE ( 'NONE', *, *, #163, .F. ) ;
#100 = DATE_AND_TIME ( #110, #117 ) ;
#101 = AXIS2_PLACEMENT_3D ( 'NONE', #42, #79, #147 ) ;
#102 = DATE_AND_TIME ( #9, #174 ) ;
#103 = ORIENTED_EDGE ( 'NONE', *, *, #155, .F. ) ;
#104 = DIRECTION ( 'NONE',  ( -0.0000000000000000000, -0.0000000000000000000, -1.000000000000000000 ) ) ;
#105 = PERSON_AND_ORGANIZATION ( #32, #15 ) ;
#106 = DIRECTION ( 'NONE',  ( 1.000000000000000000, 0.0000000000000000000, 0.0000000000000000000 ) ) ;
#107 = CIRCLE ( 'NONE', #92, 5.000000000000000000 ) ;
#108 = DIRECTION ( 'NONE',  ( 1.000000000000000000, 0.0000000000000000000, 0.0000000000000000000 ) ) ;
#109 = APPROVAL_ROLE ( '' ) ;
#110 = CALENDAR_DATE ( 2020, 11, 8 ) ;
#111 = PRODUCT ( 'Web Model 15467_15468', 'Web Model 15467_15468', '', ( #44 ) ) ;
#112 = PERSON_AND_ORGANIZATION_ROLE ( 'creator' ) ;
#113 = AXIS2_PLACEMENT_3D ( 'NONE', #94, #74, #108 ) ;
#114 = COORDINATED_UNIVERSAL_TIME_OFFSET ( 5, 0, .BEHIND. ) ;
#115 = EDGE_LOOP ( 'NONE', ( #152, #19 ) ) ;
#116 = EDGE_CURVE ( 'NONE', #77, #95, #107, .T. ) ;
#117 = LOCAL_TIME ( 16, 41, 31.00000000000000000, #114 ) ;
#118 = ORIENTED_EDGE ( 'NONE', *, *, #163, .T. ) ;
#119 = CC_DESIGN_PERSON_AND_ORGANIZATION_ASSIGNMENT ( #35, #70, ( #88 ) ) ;
#120 = ADVANCED_FACE ( 'NONE', ( #141 ), #53, .T. ) ;
#121 = COORDINATED_UNIVERSAL_TIME_OFFSET ( 5, 0, .BEHIND. ) ;
#122 = DIRECTION ( 'NONE',  ( 0.0000000000000000000, 0.0000000000000000000, 1.000000000000000000 ) ) ;
#123 = CARTESIAN_POINT ( 'NONE',  ( -5.000000000000000000, 0.0000000000000000000, 0.7500000000000000000 ) ) ;
#124 = DIRECTION ( 'NONE',  ( 0.0000000000000000000, 0.0000000000000000000, 1.000000000000000000 ) ) ;
#125 = LOCAL_TIME ( 16, 41, 31.00000000000000000, #144 ) ;
#126 = AXIS2_PLACEMENT_3D ( 'NONE', #89, #31, #156 ) ;
#127 =( NAMED_UNIT ( * ) SI_UNIT ( $, .STERADIAN. ) SOLID_ANGLE_UNIT ( ) );
#128 = PERSON_AND_ORGANIZATION ( #32, #15 ) ;
#129 = CC_DESIGN_DATE_AND_TIME_ASSIGNMENT ( #50, #148, ( #88 ) ) ;
#130 = PERSON_AND_ORGANIZATION ( #32, #15 ) ;
#131 = LINE ( 'NONE', #123, #175 ) ;
#132 = EDGE_CURVE ( 'NONE', #136, #95, #60, .T. ) ;
#133 = ORIENTED_EDGE ( 'NONE', *, *, #132, .F. ) ;
#134 = AXIS2_PLACEMENT_3D ( 'NONE', #11, #104, #38 ) ;
#135 = DIRECTION ( 'NONE',  ( 1.000000000000000000, 0.0000000000000000000, 0.0000000000000000000 ) ) ;
#136 = VERTEX_POINT ( 'NONE', #66 ) ;
#137 = CARTESIAN_POINT ( 'NONE',  ( 0.0000000000000000000, 0.0000000000000000000, -0.7500000000000000000 ) ) ;
#138 = APPROVAL ( #33, 'UNSPECIFIED' ) ;
#139 = FACE_OUTER_BOUND ( 'NONE', #23, .T. ) ;
#140 = APPLICATION_CONTEXT ( 'configuration controlled 3d designs of mechanical parts and assemblies' ) ;
#141 = FACE_OUTER_BOUND ( 'NONE', #115, .T. ) ;
#142 = APPROVAL_DATE_TIME ( #26, #63 ) ;
#143 = APPROVAL_DATE_TIME ( #100, #47 ) ;
#144 = COORDINATED_UNIVERSAL_TIME_OFFSET ( 5, 0, .BEHIND. ) ;
#145 = ADVANCED_FACE ( 'NONE', ( #37 ), #41, .T. ) ;
#146 = CIRCLE ( 'NONE', #113, 5.000000000000000000 ) ;
#147 = DIRECTION ( 'NONE',  ( -1.000000000000000000, 0.0000000000000000000, 0.0000000000000000000 ) ) ;
#148 = DATE_TIME_ROLE ( 'classification_date' ) ;
#149 = AXIS2_PLACEMENT_3D ( 'NONE', #16, #158, #82 ) ;
#150 = ORIENTED_EDGE ( 'NONE', *, *, #132, .T. ) ;
#151 = CC_DESIGN_PERSON_AND_ORGANIZATION_ASSIGNMENT ( #128, #112, ( #5 ) ) ;
#152 = ORIENTED_EDGE ( 'NONE', *, *, #155, .T. ) ;
#153 = SHAPE_DEFINITION_REPRESENTATION ( #75, #172 ) ;
#154 = ORIENTED_EDGE ( 'NONE', *, *, #25, .F. ) ;
#155 = EDGE_CURVE ( 'NONE', #97, #136, #146, .T. ) ;
#156 = DIRECTION ( 'NONE',  ( 1.000000000000000000, 0.0000000000000000000, -0.0000000000000000000 ) ) ;
#157 = EDGE_CURVE ( 'NONE', #136, #97, #86, .T. ) ;
#158 = DIRECTION ( 'NONE',  ( 0.0000000000000000000, 0.0000000000000000000, 1.000000000000000000 ) ) ;
#159 = DATE_TIME_ROLE ( 'creation_date' ) ;
#160 = PERSON_AND_ORGANIZATION ( #32, #15 ) ;
#161 = ORIENTED_EDGE ( 'NONE', *, *, #25, .T. ) ;
#162 = APPROVAL_PERSON_ORGANIZATION ( #160, #138, #109 ) ;
#163 = EDGE_CURVE ( 'NONE', #95, #77, #22, .T. ) ;
#164 = AXIS2_PLACEMENT_3D ( 'NONE', #57, #58, #43 ) ;
#165 = LOCAL_TIME ( 16, 41, 31.00000000000000000, #84 ) ;
#166 = PERSON_AND_ORGANIZATION ( #32, #15 ) ;
#167 = CC_DESIGN_SECURITY_CLASSIFICATION ( #88, ( #36 ) ) ;
#168 = APPROVAL_PERSON_ORGANIZATION ( #65, #47, #59 ) ;
#169 = CC_DESIGN_PERSON_AND_ORGANIZATION_ASSIGNMENT ( #69, #6, ( #36 ) ) ;
#170 = CYLINDRICAL_SURFACE ( 'NONE', #134, 5.000000000000000000 ) ;
#171 = ADVANCED_FACE ( 'NONE', ( #27 ), #52, .F. ) ;
#172 = ADVANCED_BREP_SHAPE_REPRESENTATION ( 'Web Model 15467_15468', ( #87, #164 ), #173 ) ;
#173 =( GEOMETRIC_REPRESENTATION_CONTEXT ( 3 ) GLOBAL_UNCERTAINTY_ASSIGNED_CONTEXT ( ( #62 ) ) GLOBAL_UNIT_ASSIGNED_CONTEXT ( ( #34, #45, #127 ) ) REPRESENTATION_CONTEXT ( 'NONE', 'WORKASPACE' ) );
#174 = LOCAL_TIME ( 16, 41, 31.00000000000000000, #121 ) ;
#175 = VECTOR ( 'NONE', #40, 1000.000000000000000 ) ;
ENDSEC;
END-ISO-10303-21;
