ISO-10303-21;
HEADER;
FILE_DESCRIPTION (( 'STEP AP203' ),
    '1' );
FILE_NAME ('step_49005.step',
    '2014-06-12T17:59:45',
    ( '' ),
    ( '' ),
    'SwSTEP 2.0',
    'SolidWorks 2014',
    '' );
FILE_SCHEMA (( 'CONFIG_CONTROL_DESIGN' ));
ENDSEC;

DATA;
#1 = DIRECTION ( 'NONE',  ( 0.7071067811865474600, -0.7071067811865474600, 0.0000000000000000000 ) ) ;
#2 = LINE ( 'NONE', #188, #92 ) ;
#3 = APPROVAL_PERSON_ORGANIZATION ( #191, #286, #24 ) ;
#4 = DIRECTION ( 'NONE',  ( -0.0000000000000000000, -0.0000000000000000000, -1.000000000000000000 ) ) ;
#5 = CARTESIAN_POINT ( 'NONE',  ( 12.50000000000000000, 0.0000000000000000000, 12.50000000000000000 ) ) ;
#6 = CARTESIAN_POINT ( 'NONE',  ( -9.184850993605149900E-016, 12.50000000000000000, 12.50000000000000000 ) ) ;
#7 = DATE_AND_TIME ( #315, #90 ) ;
#8 = LINE ( 'NONE', #153, #199 ) ;
#9 = AXIS2_PLACEMENT_3D ( 'NONE', #162, #157, #154 ) ;
#10 = PRODUCT ( 'step_49005', 'step_49005', '', ( #80 ) ) ;
#11 = VERTEX_POINT ( 'NONE', #261 ) ;
#12 = AXIS2_PLACEMENT_3D ( 'NONE', #87, #194, #27 ) ;
#13 = EDGE_LOOP ( 'NONE', ( #36, #103, #318, #85 ) ) ;
#14 = VERTEX_POINT ( 'NONE', #234 ) ;
#15 = DIRECTION ( 'NONE',  ( 0.7071067811865474600, -0.7071067811865474600, 0.0000000000000000000 ) ) ;
#16 = ADVANCED_FACE ( 'NONE', ( #97 ), #156, .T. ) ;
#17 = VECTOR ( 'NONE', #96, 1000.000000000000000 ) ;
#18 = CALENDAR_DATE ( 2014, 12, 6 ) ;
#19 = CARTESIAN_POINT ( 'NONE',  ( -9.184850993605149900E-016, 12.50000000000000000, 0.0000000000000000000 ) ) ;
#20 = CARTESIAN_POINT ( 'NONE',  ( 12.50000000000000000, 0.0000000000000000000, 12.50000000000000000 ) ) ;
#21 = ORIENTED_EDGE ( 'NONE', *, *, #151, .F. ) ;
#22 = EDGE_LOOP ( 'NONE', ( #127, #242, #78, #252 ) ) ;
#23 = VECTOR ( 'NONE', #33, 1000.000000000000100 ) ;
#24 = APPROVAL_ROLE ( '' ) ;
#25 = CARTESIAN_POINT ( 'NONE',  ( 0.0000000000000000000, 0.0000000000000000000, 0.0000000000000000000 ) ) ;
#26 = CALENDAR_DATE ( 2014, 12, 6 ) ;
#27 = DIRECTION ( 'NONE',  ( -7.347880794884120200E-017, 1.000000000000000000, 0.0000000000000000000 ) ) ;
#28 = APPROVAL_STATUS ( 'not_yet_approved' ) ;
#29 = DATE_TIME_ROLE ( 'classification_date' ) ;
#30 = PERSON_AND_ORGANIZATION_ROLE ( 'classification_officer' ) ;
#31 = ORIENTED_EDGE ( 'NONE', *, *, #111, .F. ) ;
#32 = LINE ( 'NONE', #119, #60 ) ;
#33 = DIRECTION ( 'NONE',  ( -0.7071067811865474600, 0.7071067811865474600, 0.0000000000000000000 ) ) ;
#34 = AXIS2_PLACEMENT_3D ( 'NONE', #196, #192, #190 ) ;
#35 = SECURITY_CLASSIFICATION_LEVEL ( 'unclassified' ) ;
#36 = ORIENTED_EDGE ( 'NONE', *, *, #237, .T. ) ;
#37 = CARTESIAN_POINT ( 'NONE',  ( 12.50000000000000000, 0.0000000000000000000, 0.0000000000000000000 ) ) ;
#38 = FACE_OUTER_BOUND ( 'NONE', #246, .T. ) ;
#39 = PERSON_AND_ORGANIZATION_ROLE ( 'design_supplier' ) ;
#40 = PERSON_AND_ORGANIZATION_ROLE ( 'creator' ) ;
#41 = ORIENTED_EDGE ( 'NONE', *, *, #179, .F. ) ;
#42 = CARTESIAN_POINT ( 'NONE',  ( 0.0000000000000000000, 0.0000000000000000000, 12.50000000000000000 ) ) ;
#43 = APPROVAL_ROLE ( '' ) ;
#44 = LINE ( 'NONE', #176, #100 ) ;
#45 = COORDINATED_UNIVERSAL_TIME_OFFSET ( 7, 0, .BEHIND. ) ;
#46 = CARTESIAN_POINT ( 'NONE',  ( 12.50000000000000000, 0.0000000000000000000, 0.0000000000000000000 ) ) ;
#47 = APPROVAL_STATUS ( 'not_yet_approved' ) ;
#48 = FACE_OUTER_BOUND ( 'NONE', #281, .T. ) ;
#49 = MANIFOLD_SOLID_BREP ( 'Boss-Extrude1', #290 ) ;
#50 = DESIGN_CONTEXT ( 'detailed design', #74, 'design' ) ;
#51 = AXIS2_PLACEMENT_3D ( 'NONE', #42, #160, #147 ) ;
#52 = LINE ( 'NONE', #150, #256 ) ;
#53 = CARTESIAN_POINT ( 'NONE',  ( -9.184850993605149900E-016, 12.50000000000000000, 0.0000000000000000000 ) ) ;
#54 = VECTOR ( 'NONE', #260, 1000.000000000000000 ) ;
#55 = DATE_TIME_ROLE ( 'creation_date' ) ;
#56 = DIRECTION ( 'NONE',  ( -0.7071067811865474600, 0.7071067811865474600, 0.0000000000000000000 ) ) ;
#57 = PERSON_AND_ORGANIZATION_ROLE ( 'creator' ) ;
#58 = EDGE_LOOP ( 'NONE', ( #213, #269, #277, #155 ) ) ;
#59 = DIRECTION ( 'NONE',  ( 7.347880794884120200E-017, -1.000000000000000000, 0.0000000000000000000 ) ) ;
#60 = VECTOR ( 'NONE', #121, 1000.000000000000000 ) ;
#61 = APPROVAL_ROLE ( '' ) ;
#62 = DIRECTION ( 'NONE',  ( 0.7071067811865475700, 0.7071067811865475700, -0.0000000000000000000 ) ) ;
#63 = CARTESIAN_POINT ( 'NONE',  ( 12.50000000000000000, 12.50000000000000400, 12.50000000000000000 ) ) ;
#64 = FACE_OUTER_BOUND ( 'NONE', #13, .T. ) ;
#65 = EDGE_LOOP ( 'NONE', ( #219, #137, #99 ) ) ;
#66 = APPROVAL_DATE_TIME ( #276, #113 ) ;
#67 = APPROVAL_STATUS ( 'not_yet_approved' ) ;
#68 = AXIS2_PLACEMENT_3D ( 'NONE', #238, #233, #229 ) ;
#69 = ORIENTED_EDGE ( 'NONE', *, *, #197, .T. ) ;
#70 = PLANE ( 'NONE',  #98 ) ;
#71 = ORIENTED_EDGE ( 'NONE', *, *, #262, .F. ) ;
#72 = APPLICATION_PROTOCOL_DEFINITION ( 'international standard', 'config_control_design', 1994, #74 ) ;
#73 = LINE ( 'NONE', #5, #146 ) ;
#74 = APPLICATION_CONTEXT ( 'configuration controlled 3d designs of mechanical parts and assemblies' ) ;
#75 = PERSON_AND_ORGANIZATION ( #126, #221 ) ;
#76 = PERSON_AND_ORGANIZATION_ROLE ( 'design_owner' ) ;
#77 = ORIENTED_EDGE ( 'NONE', *, *, #170, .F. ) ;
#78 = ORIENTED_EDGE ( 'NONE', *, *, #248, .F. ) ;
#79 = ADVANCED_FACE ( 'NONE', ( #64 ), #239, .F. ) ;
#80 = MECHANICAL_CONTEXT ( 'NONE', #84, 'mechanical' ) ;
#81 = DIRECTION ( 'NONE',  ( 1.000000000000000000, 0.0000000000000000000, 0.0000000000000000000 ) ) ;
#82 = DIRECTION ( 'NONE',  ( 0.0000000000000000000, 0.0000000000000000000, 1.000000000000000000 ) ) ;
#83 = FACE_OUTER_BOUND ( 'NONE', #241, .T. ) ;
#84 = APPLICATION_CONTEXT ( 'configuration controlled 3d designs of mechanical parts and assemblies' ) ;
#85 = ORIENTED_EDGE ( 'NONE', *, *, #272, .T. ) ;
#86 = LOCAL_TIME ( 10, 59, 45.00000000000000000, #106 ) ;
#87 = CARTESIAN_POINT ( 'NONE',  ( -9.184850993605149900E-016, 12.50000000000000000, 12.50000000000000000 ) ) ;
#88 = CARTESIAN_POINT ( 'NONE',  ( 0.0000000000000000000, 0.0000000000000000000, 0.0000000000000000000 ) ) ;
#89 = APPLICATION_PROTOCOL_DEFINITION ( 'international standard', 'config_control_design', 1994, #84 ) ;
#90 = LOCAL_TIME ( 10, 59, 45.00000000000000000, #173 ) ;
#91 = DIRECTION ( 'NONE',  ( 0.0000000000000000000, 1.000000000000000000, 0.0000000000000000000 ) ) ;
#92 = VECTOR ( 'NONE', #202, 1000.000000000000000 ) ;
#93 =( NAMED_UNIT ( * ) SI_UNIT ( $, .STERADIAN. ) SOLID_ANGLE_UNIT ( ) );
#94 =( NAMED_UNIT ( * ) PLANE_ANGLE_UNIT ( ) SI_UNIT ( $, .RADIAN. ) );
#95 = ORIENTED_EDGE ( 'NONE', *, *, #204, .F. ) ;
#96 = DIRECTION ( 'NONE',  ( -0.0000000000000000000, -0.0000000000000000000, -1.000000000000000000 ) ) ;
#97 = FACE_OUTER_BOUND ( 'NONE', #65, .T. ) ;
#98 = AXIS2_PLACEMENT_3D ( 'NONE', #116, #62, #56 ) ;
#99 = ORIENTED_EDGE ( 'NONE', *, *, #248, .T. ) ;
#100 = VECTOR ( 'NONE', #172, 1000.000000000000000 ) ;
#101 = PERSON_AND_ORGANIZATION ( #126, #221 ) ;
#102 = CARTESIAN_POINT ( 'NONE',  ( 0.0000000000000000000, 0.0000000000000000000, 0.0000000000000000000 ) ) ;
#103 = ORIENTED_EDGE ( 'NONE', *, *, #212, .F. ) ;
#104 = EDGE_CURVE ( 'NONE', #288, #14, #235, .T. ) ;
#105 = VERTEX_POINT ( 'NONE', #63 ) ;
#106 = COORDINATED_UNIVERSAL_TIME_OFFSET ( 7, 0, .BEHIND. ) ;
#107 = EDGE_CURVE ( 'NONE', #186, #279, #275, .T. ) ;
#108 = ADVANCED_FACE ( 'NONE', ( #304 ), #264, .T. ) ;
#109 = DIRECTION ( 'NONE',  ( 0.0000000000000000000, 0.0000000000000000000, 1.000000000000000000 ) ) ;
#110 = APPROVAL_PERSON_ORGANIZATION ( #267, #113, #61 ) ;
#111 = EDGE_CURVE ( 'NONE', #228, #11, #52, .T. ) ;
#112 = VERTEX_POINT ( 'NONE', #167 ) ;
#113 = APPROVAL ( #67, 'UNSPECIFIED' ) ;
#114 = DIRECTION ( 'NONE',  ( -1.000000000000000000, 0.0000000000000000000, 0.0000000000000000000 ) ) ;
#115 = PERSON_AND_ORGANIZATION ( #126, #221 ) ;
#116 = CARTESIAN_POINT ( 'NONE',  ( -9.184850993605149900E-016, 12.50000000000000000, 12.50000000000000000 ) ) ;
#117 = ORIENTED_EDGE ( 'NONE', *, *, #200, .T. ) ;
#118 = MANIFOLD_SOLID_BREP ( 'Boss-Extrude2', #308 ) ;
#119 = CARTESIAN_POINT ( 'NONE',  ( 12.50000000000000000, 12.50000000000000400, 12.50000000000000000 ) ) ;
#120 = PLANE ( 'NONE',  #205 ) ;
#121 = DIRECTION ( 'NONE',  ( -1.000000000000000000, -2.775557561562890900E-016, 0.0000000000000000000 ) ) ;
#122 = DIRECTION ( 'NONE',  ( 0.7071067811865474600, -0.7071067811865474600, 0.0000000000000000000 ) ) ;
#123 = AXIS2_PLACEMENT_3D ( 'NONE', #139, #124, #122 ) ;
#124 = DIRECTION ( 'NONE',  ( -0.7071067811865475700, -0.7071067811865475700, 0.0000000000000000000 ) ) ;
#125 = AXIS2_PLACEMENT_3D ( 'NONE', #134, #131, #129 ) ;
#126 = PERSON ( 'UNSPECIFIED', 'UNSPECIFIED', 'UNSPECIFIED', ('UNSPECIFIED'), ('UNSPECIFIED'), ('UNSPECIFIED') ) ;
#127 = ORIENTED_EDGE ( 'NONE', *, *, #107, .T. ) ;
#128 =( LENGTH_UNIT ( ) NAMED_UNIT ( * ) SI_UNIT ( .MILLI., .METRE. ) );
#129 = DIRECTION ( 'NONE',  ( 1.000000000000000000, 0.0000000000000000000, -0.0000000000000000000 ) ) ;
#130 = EDGE_LOOP ( 'NONE', ( #319, #159, #223, #314 ) ) ;
#131 = DIRECTION ( 'NONE',  ( 0.0000000000000000000, 0.0000000000000000000, 1.000000000000000000 ) ) ;
#132 = CARTESIAN_POINT ( 'NONE',  ( 12.50000000000000000, 12.50000000000000400, 12.50000000000000000 ) ) ;
#133 = APPROVAL ( #47, 'UNSPECIFIED' ) ;
#134 = CARTESIAN_POINT ( 'NONE',  ( 0.0000000000000000000, 0.0000000000000000000, 0.0000000000000000000 ) ) ;
#135 = ADVANCED_FACE ( 'NONE', ( #48 ), #182, .F. ) ;
#136 = ORIENTED_EDGE ( 'NONE', *, *, #255, .T. ) ;
#137 = ORIENTED_EDGE ( 'NONE', *, *, #104, .T. ) ;
#138 = FACE_OUTER_BOUND ( 'NONE', #22, .T. ) ;
#139 = CARTESIAN_POINT ( 'NONE',  ( 12.50000000000000000, 0.0000000000000000000, 12.50000000000000000 ) ) ;
#140 = EDGE_CURVE ( 'NONE', #105, #112, #32, .T. ) ;
#141 = CARTESIAN_POINT ( 'NONE',  ( 12.50000000000000000, 0.0000000000000000000, 12.50000000000000000 ) ) ;
#142 = CARTESIAN_POINT ( 'NONE',  ( -9.184850993605149900E-016, 12.50000000000000000, 12.50000000000000000 ) ) ;
#143 = DIRECTION ( 'NONE',  ( -1.000000000000000000, -2.775557561562890900E-016, 0.0000000000000000000 ) ) ;
#144 = PLANE ( 'NONE',  #125 ) ;
#145 = CARTESIAN_POINT ( 'NONE',  ( 12.50000000000000000, 0.0000000000000000000, 0.0000000000000000000 ) ) ;
#146 = VECTOR ( 'NONE', #91, 1000.000000000000000 ) ;
#147 = DIRECTION ( 'NONE',  ( 1.000000000000000000, 0.0000000000000000000, -0.0000000000000000000 ) ) ;
#148 = PRODUCT_DEFINITION ( 'UNKNOWN', '', #180, #50 ) ;
#149 = CARTESIAN_POINT ( 'NONE',  ( 12.50000000000000000, 0.0000000000000000000, 12.50000000000000000 ) ) ;
#150 = CARTESIAN_POINT ( 'NONE',  ( 12.50000000000000000, 12.50000000000000400, 0.0000000000000000000 ) ) ;
#151 = EDGE_CURVE ( 'NONE', #105, #228, #298, .T. ) ;
#152 = LOCAL_TIME ( 10, 59, 45.00000000000000000, #310 ) ;
#153 = CARTESIAN_POINT ( 'NONE',  ( -9.184850993605149900E-016, 12.50000000000000000, 12.50000000000000000 ) ) ;
#154 = DIRECTION ( 'NONE',  ( -1.000000000000000000, 0.0000000000000000000, 0.0000000000000000000 ) ) ;
#155 = ORIENTED_EDGE ( 'NONE', *, *, #151, .T. ) ;
#156 = PLANE ( 'NONE',  #51 ) ;
#157 = DIRECTION ( 'NONE',  ( 0.0000000000000000000, 0.0000000000000000000, -1.000000000000000000 ) ) ;
#158 = DIRECTION ( 'NONE',  ( -0.0000000000000000000, -0.0000000000000000000, -1.000000000000000000 ) ) ;
#159 = ORIENTED_EDGE ( 'NONE', *, *, #197, .F. ) ;
#160 = DIRECTION ( 'NONE',  ( 0.0000000000000000000, 0.0000000000000000000, 1.000000000000000000 ) ) ;
#161 = ADVANCED_FACE ( 'NONE', ( #278 ), #70, .F. ) ;
#162 = CARTESIAN_POINT ( 'NONE',  ( 0.0000000000000000000, 0.0000000000000000000, 12.50000000000000000 ) ) ;
#163 = AXIS2_PLACEMENT_3D ( 'NONE', #102, #82, #81 ) ;
#164 = PLANE ( 'NONE',  #9 ) ;
#165 = FACE_OUTER_BOUND ( 'NONE', #293, .T. ) ;
#166 = AXIS2_PLACEMENT_3D ( 'NONE', #25, #201, #184 ) ;
#167 = CARTESIAN_POINT ( 'NONE',  ( -9.184850993605149900E-016, 12.50000000000000000, 12.50000000000000000 ) ) ;
#168 = CC_DESIGN_DATE_AND_TIME_ASSIGNMENT ( #7, #55, ( #148 ) ) ;
#169 = DIRECTION ( 'NONE',  ( -0.7071067811865474600, 0.7071067811865474600, 0.0000000000000000000 ) ) ;
#170 = EDGE_CURVE ( 'NONE', #279, #309, #254, .T. ) ;
#171 = VERTEX_POINT ( 'NONE', #46 ) ;
#172 = DIRECTION ( 'NONE',  ( 1.000000000000000000, 0.0000000000000000000, 0.0000000000000000000 ) ) ;
#173 = COORDINATED_UNIVERSAL_TIME_OFFSET ( 7, 0, .BEHIND. ) ;
#174 = LINE ( 'NONE', #19, #291 ) ;
#175 = DIRECTION ( 'NONE',  ( 0.0000000000000000000, 1.000000000000000000, 0.0000000000000000000 ) ) ;
#176 = CARTESIAN_POINT ( 'NONE',  ( 0.0000000000000000000, 0.0000000000000000000, 12.50000000000000000 ) ) ;
#177 = CARTESIAN_POINT ( 'NONE',  ( -9.184850993605149900E-016, 12.50000000000000000, 0.0000000000000000000 ) ) ;
#178 = ORIENTED_EDGE ( 'NONE', *, *, #237, .F. ) ;
#179 = EDGE_CURVE ( 'NONE', #11, #171, #226, .T. ) ;
#180 = PRODUCT_DEFINITION_FORMATION_WITH_SPECIFIED_SOURCE ( 'ANY', '', #10, .NOT_KNOWN. ) ;
#181 = CARTESIAN_POINT ( 'NONE',  ( 12.50000000000000000, 0.0000000000000000000, 12.50000000000000000 ) ) ;
#182 = PLANE ( 'NONE',  #123 ) ;
#183 = UNCERTAINTY_MEASURE_WITH_UNIT (LENGTH_MEASURE( 1.000000000000000100E-005 ), #128, 'distance_accuracy_value', 'NONE');
#184 = DIRECTION ( 'NONE',  ( -1.000000000000000000, 0.0000000000000000000, 0.0000000000000000000 ) ) ;
#185 = CC_DESIGN_APPROVAL ( #133, ( #180 ) ) ;
#186 = VERTEX_POINT ( 'NONE', #88 ) ;
#187 = VECTOR ( 'NONE', #4, 1000.000000000000000 ) ;
#188 = CARTESIAN_POINT ( 'NONE',  ( 12.50000000000000000, 0.0000000000000000000, 12.50000000000000000 ) ) ;
#189 = CARTESIAN_POINT ( 'NONE',  ( 0.0000000000000000000, 0.0000000000000000000, 12.50000000000000000 ) ) ;
#190 = DIRECTION ( 'NONE',  ( 0.0000000000000000000, -0.0000000000000000000, 1.000000000000000000 ) ) ;
#191 = PERSON_AND_ORGANIZATION ( #126, #221 ) ;
#192 = DIRECTION ( 'NONE',  ( 0.0000000000000000000, 1.000000000000000000, 0.0000000000000000000 ) ) ;
#193 = ORIENTED_EDGE ( 'NONE', *, *, #209, .T. ) ;
#194 = DIRECTION ( 'NONE',  ( 1.000000000000000000, 7.347880794884120200E-017, -0.0000000000000000000 ) ) ;
#195 = DATE_AND_TIME ( #18, #225 ) ;
#196 = CARTESIAN_POINT ( 'NONE',  ( 0.0000000000000000000, 0.0000000000000000000, 12.50000000000000000 ) ) ;
#197 = EDGE_CURVE ( 'NONE', #292, #171, #259, .T. ) ;
#198 = CC_DESIGN_PERSON_AND_ORGANIZATION_ASSIGNMENT ( #250, #40, ( #180 ) ) ;
#199 = VECTOR ( 'NONE', #158, 1000.000000000000000 ) ;
#200 = EDGE_CURVE ( 'NONE', #112, #292, #320, .T. ) ;
#201 = DIRECTION ( 'NONE',  ( 0.0000000000000000000, 0.0000000000000000000, -1.000000000000000000 ) ) ;
#202 = DIRECTION ( 'NONE',  ( -0.0000000000000000000, -0.0000000000000000000, -1.000000000000000000 ) ) ;
#203 = PLANE ( 'NONE',  #34 ) ;
#204 = EDGE_CURVE ( 'NONE', #171, #228, #232, .T. ) ;
#205 = AXIS2_PLACEMENT_3D ( 'NONE', #149, #114, #109 ) ;
#206 = DIRECTION ( 'NONE',  ( -0.0000000000000000000, -0.0000000000000000000, -1.000000000000000000 ) ) ;
#207 = CC_DESIGN_PERSON_AND_ORGANIZATION_ASSIGNMENT ( #75, #39, ( #180 ) ) ;
#208 = ORIENTED_EDGE ( 'NONE', *, *, #170, .T. ) ;
#209 = EDGE_CURVE ( 'NONE', #292, #105, #73, .T. ) ;
#210 = DATE_AND_TIME ( #26, #152 ) ;
#211 = CARTESIAN_POINT ( 'NONE',  ( -9.184850993605149900E-016, 12.50000000000000000, 12.50000000000000000 ) ) ;
#212 = EDGE_CURVE ( 'NONE', #14, #186, #311, .T. ) ;
#213 = ORIENTED_EDGE ( 'NONE', *, *, #111, .T. ) ;
#214 = ORIENTED_EDGE ( 'NONE', *, *, #209, .F. ) ;
#215 = ADVANCED_FACE ( 'NONE', ( #244 ), #240, .F. ) ;
#216 = SECURITY_CLASSIFICATION ( '', '', #35 ) ;
#217 = LOCAL_TIME ( 10, 59, 45.00000000000000000, #45 ) ;
#218 = CARTESIAN_POINT ( 'NONE',  ( 12.50000000000000000, 0.0000000000000000000, 12.50000000000000000 ) ) ;
#219 = ORIENTED_EDGE ( 'NONE', *, *, #262, .T. ) ;
#220 = CARTESIAN_POINT ( 'NONE',  ( 12.50000000000000000, 12.50000000000000400, 0.0000000000000000000 ) ) ;
#221 = ORGANIZATION ( 'UNSPECIFIED', 'UNSPECIFIED', '' ) ;
#222 = PRODUCT_DEFINITION_SHAPE ( 'NONE', 'NONE',  #148 ) ;
#223 = ORIENTED_EDGE ( 'NONE', *, *, #200, .F. ) ;
#224 = DIRECTION ( 'NONE',  ( 7.347880794884120200E-017, -1.000000000000000000, 0.0000000000000000000 ) ) ;
#225 = LOCAL_TIME ( 10, 59, 45.00000000000000000, #295 ) ;
#226 = LINE ( 'NONE', #53, #282 ) ;
#227 = CALENDAR_DATE ( 2014, 12, 6 ) ;
#228 = VERTEX_POINT ( 'NONE', #220 ) ;
#229 = DIRECTION ( 'NONE',  ( 1.000000000000000000, 2.775557561562890900E-016, 0.0000000000000000000 ) ) ;
#230 = PERSON_AND_ORGANIZATION ( #126, #221 ) ;
#231 = VERTEX_POINT ( 'NONE', #218 ) ;
#232 = LINE ( 'NONE', #274, #251 ) ;
#233 = DIRECTION ( 'NONE',  ( 2.775557561562890900E-016, -1.000000000000000000, 0.0000000000000000000 ) ) ;
#234 = CARTESIAN_POINT ( 'NONE',  ( 0.0000000000000000000, 0.0000000000000000000, 12.50000000000000000 ) ) ;
#235 = LINE ( 'NONE', #312, #280 ) ;
#236 = LINE ( 'NONE', #181, #263 ) ;
#237 = EDGE_CURVE ( 'NONE', #309, #186, #174, .T. ) ;
#238 = CARTESIAN_POINT ( 'NONE',  ( 12.50000000000000000, 12.50000000000000400, 12.50000000000000000 ) ) ;
#239 = PLANE ( 'NONE',  #12 ) ;
#240 = PLANE ( 'NONE',  #68 ) ;
#241 = EDGE_LOOP ( 'NONE', ( #317, #21, #214, #69 ) ) ;
#242 = ORIENTED_EDGE ( 'NONE', *, *, #255, .F. ) ;
#243 = EDGE_CURVE ( 'NONE', #112, #11, #289, .T. ) ;
#244 = FACE_OUTER_BOUND ( 'NONE', #58, .T. ) ;
#245 = ADVANCED_FACE ( 'NONE', ( #138 ), #203, .F. ) ;
#246 = EDGE_LOOP ( 'NONE', ( #265, #117, #193 ) ) ;
#247 = ADVANCED_BREP_SHAPE_REPRESENTATION ( 'step_49005', ( #49, #118, #163 ), #305 ) ;
#248 = EDGE_CURVE ( 'NONE', #14, #231, #44, .T. ) ;
#249 = APPROVAL_PERSON_ORGANIZATION ( #101, #133, #43 ) ;
#250 = PERSON_AND_ORGANIZATION ( #126, #221 ) ;
#251 = VECTOR ( 'NONE', #175, 1000.000000000000000 ) ;
#252 = ORIENTED_EDGE ( 'NONE', *, *, #212, .T. ) ;
#253 = PERSON_AND_ORGANIZATION ( #126, #221 ) ;
#254 = LINE ( 'NONE', #37, #23 ) ;
#255 = EDGE_CURVE ( 'NONE', #231, #279, #2, .T. ) ;
#256 = VECTOR ( 'NONE', #143, 1000.000000000000000 ) ;
#257 = ORIENTED_EDGE ( 'NONE', *, *, #272, .F. ) ;
#258 = APPROVAL_DATE_TIME ( #195, #133 ) ;
#259 = LINE ( 'NONE', #20, #187 ) ;
#260 = DIRECTION ( 'NONE',  ( 1.000000000000000000, 0.0000000000000000000, 0.0000000000000000000 ) ) ;
#261 = CARTESIAN_POINT ( 'NONE',  ( -9.184850993605149900E-016, 12.50000000000000000, 0.0000000000000000000 ) ) ;
#262 = EDGE_CURVE ( 'NONE', #231, #288, #236, .T. ) ;
#263 = VECTOR ( 'NONE', #169, 1000.000000000000100 ) ;
#264 = PLANE ( 'NONE',  #166 ) ;
#265 = ORIENTED_EDGE ( 'NONE', *, *, #140, .T. ) ;
#266 = DIRECTION ( 'NONE',  ( -0.0000000000000000000, -0.0000000000000000000, -1.000000000000000000 ) ) ;
#267 = PERSON_AND_ORGANIZATION ( #126, #221 ) ;
#268 = ADVANCED_FACE ( 'NONE', ( #38 ), #164, .F. ) ;
#269 = ORIENTED_EDGE ( 'NONE', *, *, #243, .F. ) ;
#270 = CC_DESIGN_PERSON_AND_ORGANIZATION_ASSIGNMENT ( #253, #57, ( #148 ) ) ;
#271 = VECTOR ( 'NONE', #206, 1000.000000000000000 ) ;
#272 = EDGE_CURVE ( 'NONE', #288, #309, #8, .T. ) ;
#273 = CC_DESIGN_PERSON_AND_ORGANIZATION_ASSIGNMENT ( #230, #30, ( #216 ) ) ;
#274 = CARTESIAN_POINT ( 'NONE',  ( 12.50000000000000000, 0.0000000000000000000, 0.0000000000000000000 ) ) ;
#275 = LINE ( 'NONE', #299, #54 ) ;
#276 = DATE_AND_TIME ( #313, #86 ) ;
#277 = ORIENTED_EDGE ( 'NONE', *, *, #140, .F. ) ;
#278 = FACE_OUTER_BOUND ( 'NONE', #130, .T. ) ;
#279 = VERTEX_POINT ( 'NONE', #145 ) ;
#280 = VECTOR ( 'NONE', #59, 1000.000000000000000 ) ;
#281 = EDGE_LOOP ( 'NONE', ( #208, #257, #71, #136 ) ) ;
#282 = VECTOR ( 'NONE', #15, 1000.000000000000100 ) ;
#283 = CC_DESIGN_APPROVAL ( #113, ( #148 ) ) ;
#284 = CC_DESIGN_DATE_AND_TIME_ASSIGNMENT ( #297, #29, ( #216 ) ) ;
#285 = VECTOR ( 'NONE', #1, 1000.000000000000100 ) ;
#286 = APPROVAL ( #28, 'UNSPECIFIED' ) ;
#287 = CC_DESIGN_APPROVAL ( #286, ( #216 ) ) ;
#288 = VERTEX_POINT ( 'NONE', #142 ) ;
#289 = LINE ( 'NONE', #211, #271 ) ;
#290 = CLOSED_SHELL ( 'NONE', ( #135, #79, #245, #16, #300 ) ) ;
#291 = VECTOR ( 'NONE', #224, 1000.000000000000000 ) ;
#292 = VERTEX_POINT ( 'NONE', #141 ) ;
#293 = EDGE_LOOP ( 'NONE', ( #77, #296, #178 ) ) ;
#294 = CC_DESIGN_SECURITY_CLASSIFICATION ( #216, ( #180 ) ) ;
#295 = COORDINATED_UNIVERSAL_TIME_OFFSET ( 7, 0, .BEHIND. ) ;
#296 = ORIENTED_EDGE ( 'NONE', *, *, #107, .F. ) ;
#297 = DATE_AND_TIME ( #227, #217 ) ;
#298 = LINE ( 'NONE', #132, #17 ) ;
#299 = CARTESIAN_POINT ( 'NONE',  ( 0.0000000000000000000, 0.0000000000000000000, 0.0000000000000000000 ) ) ;
#300 = ADVANCED_FACE ( 'NONE', ( #165 ), #144, .F. ) ;
#301 = PRODUCT_RELATED_PRODUCT_CATEGORY ( 'detail', '', ( #10 ) ) ;
#302 = APPROVAL_DATE_TIME ( #210, #286 ) ;
#303 = SHAPE_DEFINITION_REPRESENTATION ( #222, #247 ) ;
#304 = FACE_OUTER_BOUND ( 'NONE', #306, .T. ) ;
#305 =( GEOMETRIC_REPRESENTATION_CONTEXT ( 3 ) GLOBAL_UNCERTAINTY_ASSIGNED_CONTEXT ( ( #183 ) ) GLOBAL_UNIT_ASSIGNED_CONTEXT ( ( #128, #94, #93 ) ) REPRESENTATION_CONTEXT ( 'NONE', 'WORKASPACE' ) );
#306 = EDGE_LOOP ( 'NONE', ( #31, #95, #41 ) ) ;
#307 = VECTOR ( 'NONE', #266, 1000.000000000000000 ) ;
#308 = CLOSED_SHELL ( 'NONE', ( #215, #161, #316, #268, #108 ) ) ;
#309 = VERTEX_POINT ( 'NONE', #177 ) ;
#310 = COORDINATED_UNIVERSAL_TIME_OFFSET ( 7, 0, .BEHIND. ) ;
#311 = LINE ( 'NONE', #189, #307 ) ;
#312 = CARTESIAN_POINT ( 'NONE',  ( -9.184850993605149900E-016, 12.50000000000000000, 12.50000000000000000 ) ) ;
#313 = CALENDAR_DATE ( 2014, 12, 6 ) ;
#314 = ORIENTED_EDGE ( 'NONE', *, *, #243, .T. ) ;
#315 = CALENDAR_DATE ( 2014, 12, 6 ) ;
#316 = ADVANCED_FACE ( 'NONE', ( #83 ), #120, .F. ) ;
#317 = ORIENTED_EDGE ( 'NONE', *, *, #204, .T. ) ;
#318 = ORIENTED_EDGE ( 'NONE', *, *, #104, .F. ) ;
#319 = ORIENTED_EDGE ( 'NONE', *, *, #179, .T. ) ;
#320 = LINE ( 'NONE', #6, #285 ) ;
#321 = CC_DESIGN_PERSON_AND_ORGANIZATION_ASSIGNMENT ( #115, #76, ( #10 ) ) ;
ENDSEC;
END-ISO-10303-21;
