ISO-10303-21;
HEADER;
FILE_DESCRIPTION (( 'STEP AP203' ),
    '1' );
FILE_NAME ('Web Model 49579_49579.step',
    '2019-04-23T14:10:10',
    ( '' ),
    ( '' ),
    'SwSTEP 2.0',
    'SolidWorks 2018',
    '' );
FILE_SCHEMA (( 'CONFIG_CONTROL_DESIGN' ));
ENDSEC;

DATA;
#1 = APPROVAL_ROLE ( '' ) ;
#2 = FACE_OUTER_BOUND ( 'NONE', #170, .T. ) ;
#3 = EDGE_LOOP ( 'NONE', ( #65, #140, #88, #37 ) ) ;
#4 = APPLICATION_CONTEXT ( 'configuration controlled 3d designs of mechanical parts and assemblies' ) ;
#5 = APPLICATION_CONTEXT ( 'configuration controlled 3d designs of mechanical parts and assemblies' ) ;
#6 = AXIS2_PLACEMENT_3D ( 'NONE', #39, #60, #112 ) ;
#7 = DATE_AND_TIME ( #172, #27 ) ;
#8 = VECTOR ( 'NONE', #109, 1000.000000000000000 ) ;
#9 = PERSON_AND_ORGANIZATION_ROLE ( 'classification_officer' ) ;
#10 = PERSON_AND_ORGANIZATION ( #13, #93 ) ;
#11 = ADVANCED_FACE ( 'NONE', ( #145 ), #74, .F. ) ;
#12 = COORDINATED_UNIVERSAL_TIME_OFFSET ( 5, 0, .BEHIND. ) ;
#13 = PERSON ( 'UNSPECIFIED', 'UNSPECIFIED', 'UNSPECIFIED', ('UNSPECIFIED'), ('UNSPECIFIED'), ('UNSPECIFIED') ) ;
#14 = ADVANCED_FACE ( 'NONE', ( #76 ), #184, .F. ) ;
#15 = DATE_AND_TIME ( #99, #192 ) ;
#16 = LINE ( 'NONE', #18, #8 ) ;
#17 = ORIENTED_EDGE ( 'NONE', *, *, #20, .T. ) ;
#18 = CARTESIAN_POINT ( 'NONE',  ( 12.50000000000000000, -12.50000000000000000, 3.000000000000000000 ) ) ;
#19 = ORIENTED_EDGE ( 'NONE', *, *, #29, .F. ) ;
#20 = EDGE_CURVE ( 'NONE', #161, #148, #226, .T. ) ;
#21 = EDGE_CURVE ( 'NONE', #194, #46, #59, .T. ) ;
#22 = DATE_TIME_ROLE ( 'creation_date' ) ;
#23 = APPROVAL_PERSON_ORGANIZATION ( #153, #95, #68 ) ;
#24 =( LENGTH_UNIT ( ) NAMED_UNIT ( * ) SI_UNIT ( .MILLI., .METRE. ) );
#25 = DIRECTION ( 'NONE',  ( 0.0000000000000000000, 0.0000000000000000000, 1.000000000000000000 ) ) ;
#26 = CC_DESIGN_PERSON_AND_ORGANIZATION_ASSIGNMENT ( #84, #9, ( #205 ) ) ;
#27 = LOCAL_TIME ( 10, 10, 10.00000000000000000, #216 ) ;
#28 = CLOSED_SHELL ( 'NONE', ( #227, #14, #71, #11, #125, #142 ) ) ;
#29 = EDGE_CURVE ( 'NONE', #90, #144, #54, .T. ) ;
#30 = DIRECTION ( 'NONE',  ( 0.0000000000000000000, 0.0000000000000000000, -1.000000000000000000 ) ) ;
#31 = LINE ( 'NONE', #138, #222 ) ;
#32 = EDGE_LOOP ( 'NONE', ( #193, #106, #102, #17 ) ) ;
#33 = DATE_AND_TIME ( #126, #183 ) ;
#34 = VECTOR ( 'NONE', #98, 1000.000000000000000 ) ;
#35 = LINE ( 'NONE', #82, #41 ) ;
#36 = DIRECTION ( 'NONE',  ( 1.000000000000000000, 0.0000000000000000000, 0.0000000000000000000 ) ) ;
#37 = ORIENTED_EDGE ( 'NONE', *, *, #44, .T. ) ;
#38 = DIRECTION ( 'NONE',  ( 0.0000000000000000000, 1.000000000000000000, 0.0000000000000000000 ) ) ;
#39 = CARTESIAN_POINT ( 'NONE',  ( -12.50000000000000000, -12.50000000000000000, 3.000000000000000000 ) ) ;
#40 = CALENDAR_DATE ( 2019, 23, 4 ) ;
#41 = VECTOR ( 'NONE', #189, 1000.000000000000000 ) ;
#42 = CARTESIAN_POINT ( 'NONE',  ( 12.50000000000000000, 12.50000000000000000, 3.000000000000000000 ) ) ;
#43 =( NAMED_UNIT ( * ) SI_UNIT ( $, .STERADIAN. ) SOLID_ANGLE_UNIT ( ) );
#44 = EDGE_CURVE ( 'NONE', #148, #144, #16, .T. ) ;
#45 = VECTOR ( 'NONE', #212, 1000.000000000000000 ) ;
#46 = VERTEX_POINT ( 'NONE', #199 ) ;
#47 =( NAMED_UNIT ( * ) PLANE_ANGLE_UNIT ( ) SI_UNIT ( $, .RADIAN. ) );
#48 = APPROVAL_STATUS ( 'not_yet_approved' ) ;
#49 = COORDINATED_UNIVERSAL_TIME_OFFSET ( 5, 0, .BEHIND. ) ;
#50 = LINE ( 'NONE', #186, #70 ) ;
#51 = EDGE_LOOP ( 'NONE', ( #72, #177, #229, #111 ) ) ;
#52 = PRODUCT_DEFINITION_SHAPE ( 'NONE', 'NONE',  #128 ) ;
#53 = PERSON_AND_ORGANIZATION ( #13, #93 ) ;
#54 = LINE ( 'NONE', #214, #127 ) ;
#55 = FACE_OUTER_BOUND ( 'NONE', #32, .T. ) ;
#56 = DESIGN_CONTEXT ( 'detailed design', #5, 'design' ) ;
#57 =( GEOMETRIC_REPRESENTATION_CONTEXT ( 3 ) GLOBAL_UNCERTAINTY_ASSIGNED_CONTEXT ( ( #204 ) ) GLOBAL_UNIT_ASSIGNED_CONTEXT ( ( #24, #47, #43 ) ) REPRESENTATION_CONTEXT ( 'NONE', 'WORKASPACE' ) );
#58 = APPROVAL_PERSON_ORGANIZATION ( #206, #121, #1 ) ;
#59 = LINE ( 'NONE', #91, #45 ) ;
#60 = DIRECTION ( 'NONE',  ( -0.0000000000000000000, 1.000000000000000000, 0.0000000000000000000 ) ) ;
#61 = APPROVAL ( #120, 'UNSPECIFIED' ) ;
#62 = APPROVAL_STATUS ( 'not_yet_approved' ) ;
#63 = COORDINATED_UNIVERSAL_TIME_OFFSET ( 5, 0, .BEHIND. ) ;
#64 = CC_DESIGN_SECURITY_CLASSIFICATION ( #205, ( #103 ) ) ;
#65 = ORIENTED_EDGE ( 'NONE', *, *, #83, .T. ) ;
#66 = DIRECTION ( 'NONE',  ( 0.0000000000000000000, 0.0000000000000000000, -1.000000000000000000 ) ) ;
#67 = AXIS2_PLACEMENT_3D ( 'NONE', #94, #110, #162 ) ;
#68 = APPROVAL_ROLE ( '' ) ;
#69 = APPROVAL_ROLE ( '' ) ;
#70 = VECTOR ( 'NONE', #66, 1000.000000000000000 ) ;
#71 = ADVANCED_FACE ( 'NONE', ( #176 ), #182, .F. ) ;
#72 = ORIENTED_EDGE ( 'NONE', *, *, #29, .T. ) ;
#73 = PRODUCT_RELATED_PRODUCT_CATEGORY ( 'detail', '', ( #230 ) ) ;
#74 = PLANE ( 'NONE',  #6 ) ;
#75 = FACE_OUTER_BOUND ( 'NONE', #3, .T. ) ;
#76 = FACE_OUTER_BOUND ( 'NONE', #129, .T. ) ;
#77 = DIRECTION ( 'NONE',  ( 1.000000000000000000, 0.0000000000000000000, 0.0000000000000000000 ) ) ;
#78 = CARTESIAN_POINT ( 'NONE',  ( 12.50000000000000000, 12.50000000000000000, 3.000000000000000000 ) ) ;
#79 = PLANE ( 'NONE',  #132 ) ;
#80 = EDGE_LOOP ( 'NONE', ( #155, #217, #213, #210 ) ) ;
#81 = PLANE ( 'NONE',  #101 ) ;
#82 = CARTESIAN_POINT ( 'NONE',  ( -12.50000000000000000, -12.50000000000000000, 3.000000000000000000 ) ) ;
#83 = EDGE_CURVE ( 'NONE', #144, #185, #89, .T. ) ;
#84 = PERSON_AND_ORGANIZATION ( #13, #93 ) ;
#85 = DATE_TIME_ROLE ( 'classification_date' ) ;
#86 = CALENDAR_DATE ( 2019, 23, 4 ) ;
#87 = EDGE_CURVE ( 'NONE', #148, #223, #198, .T. ) ;
#88 = ORIENTED_EDGE ( 'NONE', *, *, #87, .F. ) ;
#89 = LINE ( 'NONE', #160, #236 ) ;
#90 = VERTEX_POINT ( 'NONE', #131 ) ;
#91 = CARTESIAN_POINT ( 'NONE',  ( -12.50000000000000000, 12.50000000000000000, 3.000000000000000000 ) ) ;
#92 = CARTESIAN_POINT ( 'NONE',  ( 12.50000000000000000, -12.50000000000000000, 3.000000000000000000 ) ) ;
#93 = ORGANIZATION ( 'UNSPECIFIED', 'UNSPECIFIED', '' ) ;
#94 = CARTESIAN_POINT ( 'NONE',  ( -12.50000000000000000, -12.50000000000000000, 3.000000000000000000 ) ) ;
#95 = APPROVAL ( #48, 'UNSPECIFIED' ) ;
#96 = PERSON_AND_ORGANIZATION_ROLE ( 'creator' ) ;
#97 = CARTESIAN_POINT ( 'NONE',  ( 12.50000000000000000, 12.50000000000000000, 0.0000000000000000000 ) ) ;
#98 = DIRECTION ( 'NONE',  ( 0.0000000000000000000, 0.0000000000000000000, -1.000000000000000000 ) ) ;
#99 = CALENDAR_DATE ( 2019, 23, 4 ) ;
#100 = LINE ( 'NONE', #147, #233 ) ;
#101 = AXIS2_PLACEMENT_3D ( 'NONE', #136, #203, #25 ) ;
#102 = ORIENTED_EDGE ( 'NONE', *, *, #141, .T. ) ;
#103 = PRODUCT_DEFINITION_FORMATION_WITH_SPECIFIED_SOURCE ( 'ANY', '', #230, .NOT_KNOWN. ) ;
#104 = APPROVAL_DATE_TIME ( #33, #61 ) ;
#105 = APPROVAL_DATE_TIME ( #232, #95 ) ;
#106 = ORIENTED_EDGE ( 'NONE', *, *, #231, .T. ) ;
#107 = CARTESIAN_POINT ( 'NONE',  ( -12.50000000000000000, -12.50000000000000000, 3.000000000000000000 ) ) ;
#108 = CC_DESIGN_PERSON_AND_ORGANIZATION_ASSIGNMENT ( #118, #96, ( #103 ) ) ;
#109 = DIRECTION ( 'NONE',  ( 0.0000000000000000000, 0.0000000000000000000, -1.000000000000000000 ) ) ;
#110 = DIRECTION ( 'NONE',  ( 1.000000000000000000, 0.0000000000000000000, 0.0000000000000000000 ) ) ;
#111 = ORIENTED_EDGE ( 'NONE', *, *, #154, .T. ) ;
#112 = DIRECTION ( 'NONE',  ( 1.000000000000000000, 0.0000000000000000000, 0.0000000000000000000 ) ) ;
#113 = DIRECTION ( 'NONE',  ( -1.000000000000000000, 0.0000000000000000000, 0.0000000000000000000 ) ) ;
#114 = LOCAL_TIME ( 10, 10, 10.00000000000000000, #49 ) ;
#115 = ORIENTED_EDGE ( 'NONE', *, *, #158, .F. ) ;
#116 = CC_DESIGN_APPROVAL ( #95, ( #128 ) ) ;
#117 = PERSON_AND_ORGANIZATION_ROLE ( 'design_owner' ) ;
#118 = PERSON_AND_ORGANIZATION ( #13, #93 ) ;
#119 = ORIENTED_EDGE ( 'NONE', *, *, #21, .F. ) ;
#120 = APPROVAL_STATUS ( 'not_yet_approved' ) ;
#121 = APPROVAL ( #62, 'UNSPECIFIED' ) ;
#122 = AXIS2_PLACEMENT_3D ( 'NONE', #168, #171, #77 ) ;
#123 = APPROVAL_DATE_TIME ( #152, #121 ) ;
#124 = ORIENTED_EDGE ( 'NONE', *, *, #169, .F. ) ;
#125 = ADVANCED_FACE ( 'NONE', ( #55 ), #196, .F. ) ;
#126 = CALENDAR_DATE ( 2019, 23, 4 ) ;
#127 = VECTOR ( 'NONE', #234, 1000.000000000000000 ) ;
#128 = PRODUCT_DEFINITION ( 'UNKNOWN', '', #103, #56 ) ;
#129 = EDGE_LOOP ( 'NONE', ( #180, #119, #174, #228 ) ) ;
#130 = DIRECTION ( 'NONE',  ( 0.0000000000000000000, 1.000000000000000000, 0.0000000000000000000 ) ) ;
#131 = CARTESIAN_POINT ( 'NONE',  ( -12.50000000000000000, -12.50000000000000000, 0.0000000000000000000 ) ) ;
#132 = AXIS2_PLACEMENT_3D ( 'NONE', #146, #167, #150 ) ;
#133 = PERSON_AND_ORGANIZATION ( #13, #93 ) ;
#134 = APPLICATION_PROTOCOL_DEFINITION ( 'international standard', 'config_control_design', 1994, #4 ) ;
#135 = CARTESIAN_POINT ( 'NONE',  ( -12.50000000000000000, -12.50000000000000000, 0.0000000000000000000 ) ) ;
#136 = CARTESIAN_POINT ( 'NONE',  ( 12.50000000000000000, -12.50000000000000000, 3.000000000000000000 ) ) ;
#137 = DIRECTION ( 'NONE',  ( 0.0000000000000000000, -1.000000000000000000, 0.0000000000000000000 ) ) ;
#138 = CARTESIAN_POINT ( 'NONE',  ( -12.50000000000000000, 12.50000000000000000, 3.000000000000000000 ) ) ;
#139 = LINE ( 'NONE', #42, #34 ) ;
#140 = ORIENTED_EDGE ( 'NONE', *, *, #178, .F. ) ;
#141 = EDGE_CURVE ( 'NONE', #194, #161, #35, .T. ) ;
#142 = ADVANCED_FACE ( 'NONE', ( #2 ), #79, .T. ) ;
#143 = LOCAL_TIME ( 10, 10, 10.00000000000000000, #12 ) ;
#144 = VERTEX_POINT ( 'NONE', #221 ) ;
#145 = FACE_OUTER_BOUND ( 'NONE', #51, .T. ) ;
#146 = CARTESIAN_POINT ( 'NONE',  ( 0.0000000000000000000, 0.0000000000000000000, 0.0000000000000000000 ) ) ;
#147 = CARTESIAN_POINT ( 'NONE',  ( -12.50000000000000000, 12.50000000000000000, 0.0000000000000000000 ) ) ;
#148 = VERTEX_POINT ( 'NONE', #202 ) ;
#149 = DIRECTION ( 'NONE',  ( 0.0000000000000000000, -1.000000000000000000, 0.0000000000000000000 ) ) ;
#150 = DIRECTION ( 'NONE',  ( 0.0000000000000000000, -1.000000000000000000, 0.0000000000000000000 ) ) ;
#151 = CC_DESIGN_PERSON_AND_ORGANIZATION_ASSIGNMENT ( #133, #117, ( #230 ) ) ;
#152 = DATE_AND_TIME ( #40, #143 ) ;
#153 = PERSON_AND_ORGANIZATION ( #13, #93 ) ;
#154 = EDGE_CURVE ( 'NONE', #161, #90, #50, .T. ) ;
#155 = ORIENTED_EDGE ( 'NONE', *, *, #169, .T. ) ;
#156 = SHAPE_DEFINITION_REPRESENTATION ( #52, #166 ) ;
#157 = CC_DESIGN_DATE_AND_TIME_ASSIGNMENT ( #15, #22, ( #128 ) ) ;
#158 = EDGE_CURVE ( 'NONE', #185, #46, #100, .T. ) ;
#159 = CC_DESIGN_DATE_AND_TIME_ASSIGNMENT ( #7, #85, ( #205 ) ) ;
#160 = CARTESIAN_POINT ( 'NONE',  ( 12.50000000000000000, -12.50000000000000000, 0.0000000000000000000 ) ) ;
#161 = VERTEX_POINT ( 'NONE', #165 ) ;
#162 = DIRECTION ( 'NONE',  ( 0.0000000000000000000, 1.000000000000000000, 0.0000000000000000000 ) ) ;
#163 = VECTOR ( 'NONE', #137, 1000.000000000000000 ) ;
#164 = CARTESIAN_POINT ( 'NONE',  ( -12.50000000000000000, 12.50000000000000000, 3.000000000000000000 ) ) ;
#165 = CARTESIAN_POINT ( 'NONE',  ( -12.50000000000000000, -12.50000000000000000, 3.000000000000000000 ) ) ;
#166 = ADVANCED_BREP_SHAPE_REPRESENTATION ( 'Web Model 49579_49579', ( #208, #122 ), #57 ) ;
#167 = DIRECTION ( 'NONE',  ( 0.0000000000000000000, 0.0000000000000000000, -1.000000000000000000 ) ) ;
#168 = CARTESIAN_POINT ( 'NONE',  ( 0.0000000000000000000, 0.0000000000000000000, 0.0000000000000000000 ) ) ;
#169 = EDGE_CURVE ( 'NONE', #46, #90, #179, .T. ) ;
#170 = EDGE_LOOP ( 'NONE', ( #207, #19, #124, #115 ) ) ;
#171 = DIRECTION ( 'NONE',  ( 0.0000000000000000000, 0.0000000000000000000, 1.000000000000000000 ) ) ;
#172 = CALENDAR_DATE ( 2019, 23, 4 ) ;
#173 = VECTOR ( 'NONE', #36, 1000.000000000000000 ) ;
#174 = ORIENTED_EDGE ( 'NONE', *, *, #231, .F. ) ;
#175 = APPROVAL_PERSON_ORGANIZATION ( #53, #61, #69 ) ;
#176 = FACE_OUTER_BOUND ( 'NONE', #80, .T. ) ;
#177 = ORIENTED_EDGE ( 'NONE', *, *, #44, .F. ) ;
#178 = EDGE_CURVE ( 'NONE', #223, #185, #139, .T. ) ;
#179 = LINE ( 'NONE', #135, #163 ) ;
#180 = ORIENTED_EDGE ( 'NONE', *, *, #158, .T. ) ;
#181 = CC_DESIGN_APPROVAL ( #61, ( #205 ) ) ;
#182 = PLANE ( 'NONE',  #67 ) ;
#183 = LOCAL_TIME ( 10, 10, 10.00000000000000000, #225 ) ;
#184 = PLANE ( 'NONE',  #191 ) ;
#185 = VERTEX_POINT ( 'NONE', #97 ) ;
#186 = CARTESIAN_POINT ( 'NONE',  ( -12.50000000000000000, -12.50000000000000000, 3.000000000000000000 ) ) ;
#187 = APPLICATION_PROTOCOL_DEFINITION ( 'international standard', 'config_control_design', 1994, #5 ) ;
#188 = CC_DESIGN_APPROVAL ( #121, ( #103 ) ) ;
#189 = DIRECTION ( 'NONE',  ( 0.0000000000000000000, -1.000000000000000000, 0.0000000000000000000 ) ) ;
#190 = CARTESIAN_POINT ( 'NONE',  ( 0.0000000000000000000, 0.0000000000000000000, 3.000000000000000000 ) ) ;
#191 = AXIS2_PLACEMENT_3D ( 'NONE', #211, #215, #235 ) ;
#192 = LOCAL_TIME ( 10, 10, 10.00000000000000000, #63 ) ;
#193 = ORIENTED_EDGE ( 'NONE', *, *, #87, .T. ) ;
#194 = VERTEX_POINT ( 'NONE', #164 ) ;
#195 = CC_DESIGN_PERSON_AND_ORGANIZATION_ASSIGNMENT ( #197, #218, ( #103 ) ) ;
#196 = PLANE ( 'NONE',  #237 ) ;
#197 = PERSON_AND_ORGANIZATION ( #13, #93 ) ;
#198 = LINE ( 'NONE', #92, #209 ) ;
#199 = CARTESIAN_POINT ( 'NONE',  ( -12.50000000000000000, 12.50000000000000000, 0.0000000000000000000 ) ) ;
#200 = PERSON_AND_ORGANIZATION_ROLE ( 'creator' ) ;
#201 = DIRECTION ( 'NONE',  ( -1.000000000000000000, 0.0000000000000000000, 0.0000000000000000000 ) ) ;
#202 = CARTESIAN_POINT ( 'NONE',  ( 12.50000000000000000, -12.50000000000000000, 3.000000000000000000 ) ) ;
#203 = DIRECTION ( 'NONE',  ( -1.000000000000000000, 0.0000000000000000000, 0.0000000000000000000 ) ) ;
#204 = UNCERTAINTY_MEASURE_WITH_UNIT (LENGTH_MEASURE( 1.000000000000000082E-05 ), #24, 'distance_accuracy_value', 'NONE');
#205 = SECURITY_CLASSIFICATION ( '', '', #219 ) ;
#206 = PERSON_AND_ORGANIZATION ( #13, #93 ) ;
#207 = ORIENTED_EDGE ( 'NONE', *, *, #83, .F. ) ;
#208 = MANIFOLD_SOLID_BREP ( 'NONE', #28 ) ;
#209 = VECTOR ( 'NONE', #130, 1000.000000000000000 ) ;
#210 = ORIENTED_EDGE ( 'NONE', *, *, #21, .T. ) ;
#211 = CARTESIAN_POINT ( 'NONE',  ( -12.50000000000000000, 12.50000000000000000, 3.000000000000000000 ) ) ;
#212 = DIRECTION ( 'NONE',  ( 0.0000000000000000000, 0.0000000000000000000, -1.000000000000000000 ) ) ;
#213 = ORIENTED_EDGE ( 'NONE', *, *, #141, .F. ) ;
#214 = CARTESIAN_POINT ( 'NONE',  ( -12.50000000000000000, -12.50000000000000000, 0.0000000000000000000 ) ) ;
#215 = DIRECTION ( 'NONE',  ( 0.0000000000000000000, -1.000000000000000000, 0.0000000000000000000 ) ) ;
#216 = COORDINATED_UNIVERSAL_TIME_OFFSET ( 5, 0, .BEHIND. ) ;
#217 = ORIENTED_EDGE ( 'NONE', *, *, #154, .F. ) ;
#218 = PERSON_AND_ORGANIZATION_ROLE ( 'design_supplier' ) ;
#219 = SECURITY_CLASSIFICATION_LEVEL ( 'unclassified' ) ;
#220 = CC_DESIGN_PERSON_AND_ORGANIZATION_ASSIGNMENT ( #10, #200, ( #128 ) ) ;
#221 = CARTESIAN_POINT ( 'NONE',  ( 12.50000000000000000, -12.50000000000000000, 0.0000000000000000000 ) ) ;
#222 = VECTOR ( 'NONE', #113, 1000.000000000000000 ) ;
#223 = VERTEX_POINT ( 'NONE', #78 ) ;
#224 = MECHANICAL_CONTEXT ( 'NONE', #4, 'mechanical' ) ;
#225 = COORDINATED_UNIVERSAL_TIME_OFFSET ( 5, 0, .BEHIND. ) ;
#226 = LINE ( 'NONE', #107, #173 ) ;
#227 = ADVANCED_FACE ( 'NONE', ( #75 ), #81, .F. ) ;
#228 = ORIENTED_EDGE ( 'NONE', *, *, #178, .T. ) ;
#229 = ORIENTED_EDGE ( 'NONE', *, *, #20, .F. ) ;
#230 = PRODUCT ( 'Web Model 49579_49579', 'Web Model 49579_49579', '', ( #224 ) ) ;
#231 = EDGE_CURVE ( 'NONE', #223, #194, #31, .T. ) ;
#232 = DATE_AND_TIME ( #86, #114 ) ;
#233 = VECTOR ( 'NONE', #201, 1000.000000000000000 ) ;
#234 = DIRECTION ( 'NONE',  ( 1.000000000000000000, 0.0000000000000000000, 0.0000000000000000000 ) ) ;
#235 = DIRECTION ( 'NONE',  ( 0.0000000000000000000, 0.0000000000000000000, -1.000000000000000000 ) ) ;
#236 = VECTOR ( 'NONE', #38, 1000.000000000000000 ) ;
#237 = AXIS2_PLACEMENT_3D ( 'NONE', #190, #30, #149 ) ;
ENDSEC;
END-ISO-10303-21;
