ISO-10303-21;
HEADER;
FILE_DESCRIPTION (( 'STEP AP203' ),
    '1' );
FILE_NAME ('Web Model 43366_20981.step',
    '2022-03-15T18:08:30',
    ( '' ),
    ( '' ),
    'SwSTEP 2.0',
    'SolidWorks 2021',
    '' );
FILE_SCHEMA (( 'CONFIG_CONTROL_DESIGN' ));
ENDSEC;

DATA;
#1 = ORIENTED_EDGE ( 'NONE', *, *, #54, .F. ) ;
#2 = VERTEX_POINT ( 'NONE', #164 ) ;
#3 = ADVANCED_FACE ( 'NONE', ( #69 ), #20, .F. ) ;
#4 = DIRECTION ( 'NONE',  ( 1.000000000000000000, 0.000000000000000000, 0.000000000000000000 ) ) ;
#5 = PRODUCT_DEFINITION_SHAPE ( 'NONE', 'NONE',  #59 ) ;
#6 = DIRECTION ( 'NONE',  ( 0.000000000000000000, 0.000000000000000000, 1.000000000000000000 ) ) ;
#7 = DIRECTION ( 'NONE',  ( -0.000000000000000000, -0.000000000000000000, -1.000000000000000000 ) ) ;
#8 = AXIS2_PLACEMENT_3D ( 'NONE', #117, #154, #157 ) ;
#9 = CC_DESIGN_PERSON_AND_ORGANIZATION_ASSIGNMENT ( #17, #173, ( #166 ) ) ;
#10 = PRODUCT ( 'Web Model 43366_20981', 'Web Model 43366_20981', '', ( #60 ) ) ;
#11 = APPROVAL_STATUS ( 'not_yet_approved' ) ;
#12 = DATE_AND_TIME ( #118, #106 ) ;
#13 = VECTOR ( 'NONE', #7, 1000.000000000000000 ) ;
#14 = CC_DESIGN_APPROVAL ( #84, ( #166 ) ) ;
#15 = APPROVAL_DATE_TIME ( #94, #133 ) ;
#16 = ORIENTED_EDGE ( 'NONE', *, *, #54, .T. ) ;
#17 = PERSON_AND_ORGANIZATION ( #161, #28 ) ;
#18 = PERSON_AND_ORGANIZATION ( #161, #28 ) ;
#19 = APPROVAL_PERSON_ORGANIZATION ( #96, #133, #122 ) ;
#20 = PLANE ( 'NONE',  #116 ) ;
#21 = ORIENTED_EDGE ( 'NONE', *, *, #136, .F. ) ;
#22 = FACE_OUTER_BOUND ( 'NONE', #82, .T. ) ;
#23 = ADVANCED_FACE ( 'NONE', ( #22 ), #112, .T. ) ;
#24 = DIRECTION ( 'NONE',  ( 0.000000000000000000, 0.000000000000000000, 1.000000000000000000 ) ) ;
#25 = DIRECTION ( 'NONE',  ( 1.000000000000000000, 0.000000000000000000, 0.000000000000000000 ) ) ;
#26 = CC_DESIGN_APPROVAL ( #129, ( #59 ) ) ;
#27 = APPROVAL_STATUS ( 'not_yet_approved' ) ;
#28 = ORGANIZATION ( 'UNSPECIFIED', 'UNSPECIFIED', '' ) ;
#29 = COORDINATED_UNIVERSAL_TIME_OFFSET ( 5, 0, .BEHIND. ) ;
#30 = CC_DESIGN_APPROVAL ( #133, ( #91 ) ) ;
#31 = PERSON_AND_ORGANIZATION ( #161, #28 ) ;
#32 = CALENDAR_DATE ( 2022, 15, 3 ) ;
#33 = AXIS2_PLACEMENT_3D ( 'NONE', #130, #103, #167 ) ;
#34 = VERTEX_POINT ( 'NONE', #76 ) ;
#35 = DIRECTION ( 'NONE',  ( 1.000000000000000000, 0.000000000000000000, -0.000000000000000000 ) ) ;
#36 = CARTESIAN_POINT ( 'NONE',  ( 0.000000000000000000, 0.000000000000000000, 0.5000000000000000000 ) ) ;
#37 = DIRECTION ( 'NONE',  ( 1.000000000000000000, 0.000000000000000000, 0.000000000000000000 ) ) ;
#38 = DIRECTION ( 'NONE',  ( 1.000000000000000000, 0.000000000000000000, 0.000000000000000000 ) ) ;
#39 = EDGE_CURVE ( 'NONE', #137, #135, #88, .T. ) ;
#40 = APPROVAL_ROLE ( '' ) ;
#41 = DATE_TIME_ROLE ( 'creation_date' ) ;
#42 = ADVANCED_BREP_SHAPE_REPRESENTATION ( 'Web Model 43366_20981', ( #140, #79 ), #100 ) ;
#43 = CARTESIAN_POINT ( 'NONE',  ( 0.000000000000000000, 0.000000000000000000, 0.000000000000000000 ) ) ;
#44 = DIRECTION ( 'NONE',  ( 0.000000000000000000, 0.000000000000000000, 1.000000000000000000 ) ) ;
#45 = DIRECTION ( 'NONE',  ( 0.000000000000000000, 0.000000000000000000, 1.000000000000000000 ) ) ;
#46 = DESIGN_CONTEXT ( 'detailed design', #81, 'design' ) ;
#47 = DIRECTION ( 'NONE',  ( 0.000000000000000000, 0.000000000000000000, 1.000000000000000000 ) ) ;
#48 = CIRCLE ( 'NONE', #139, 5.000000000000000000 ) ;
#49 = CLOSED_SHELL ( 'NONE', ( #23, #89, #99, #3 ) ) ;
#50 = CARTESIAN_POINT ( 'NONE',  ( -5.000000000000000000, 0.000000000000000000, 0.000000000000000000 ) ) ;
#51 = DATE_AND_TIME ( #107, #125 ) ;
#52 = APPLICATION_PROTOCOL_DEFINITION ( 'international standard', 'config_control_design', 1994, #81 ) ;
#53 = SECURITY_CLASSIFICATION_LEVEL ( 'unclassified' ) ;
#54 = EDGE_CURVE ( 'NONE', #34, #137, #101, .T. ) ;
#55 = PERSON_AND_ORGANIZATION ( #161, #28 ) ;
#56 = EDGE_LOOP ( 'NONE', ( #1, #152, #165, #73 ) ) ;
#57 = EDGE_LOOP ( 'NONE', ( #71, #80 ) ) ;
#58 = CC_DESIGN_DATE_AND_TIME_ASSIGNMENT ( #97, #95, ( #91 ) ) ;
#59 = PRODUCT_DEFINITION ( 'UNKNOWN', '', #166, #46 ) ;
#60 = MECHANICAL_CONTEXT ( 'NONE', #65, 'mechanical' ) ;
#61 = LINE ( 'NONE', #141, #68 ) ;
#62 = CARTESIAN_POINT ( 'NONE',  ( 0.000000000000000000, 0.000000000000000000, 0.000000000000000000 ) ) ;
#63 = PLANE ( 'NONE',  #146 ) ;
#64 = COORDINATED_UNIVERSAL_TIME_OFFSET ( 5, 0, .BEHIND. ) ;
#65 = APPLICATION_CONTEXT ( 'configuration controlled 3d designs of mechanical parts and assemblies' ) ;
#66 = EDGE_CURVE ( 'NONE', #2, #34, #48, .T. ) ;
#67 = PERSON_AND_ORGANIZATION_ROLE ( 'design_supplier' ) ;
#68 = VECTOR ( 'NONE', #168, 1000.000000000000000 ) ;
#69 = FACE_OUTER_BOUND ( 'NONE', #126, .T. ) ;
#70 = PRODUCT_RELATED_PRODUCT_CATEGORY ( 'detail', '', ( #10 ) ) ;
#71 = ORIENTED_EDGE ( 'NONE', *, *, #66, .T. ) ;
#72 = CALENDAR_DATE ( 2022, 15, 3 ) ;
#73 = ORIENTED_EDGE ( 'NONE', *, *, #171, .T. ) ;
#74 = CYLINDRICAL_SURFACE ( 'NONE', #8, 5.000000000000000000 ) ;
#75 = PERSON_AND_ORGANIZATION ( #161, #28 ) ;
#76 = CARTESIAN_POINT ( 'NONE',  ( 5.000000000000000000, 6.123233995736766282E-16, 0.5000000000000000000 ) ) ;
#77 = APPLICATION_PROTOCOL_DEFINITION ( 'international standard', 'config_control_design', 1994, #65 ) ;
#78 = PERSON_AND_ORGANIZATION_ROLE ( 'creator' ) ;
#79 = AXIS2_PLACEMENT_3D ( 'NONE', #144, #127, #4 ) ;
#80 = ORIENTED_EDGE ( 'NONE', *, *, #160, .T. ) ;
#81 = APPLICATION_CONTEXT ( 'configuration controlled 3d designs of mechanical parts and assemblies' ) ;
#82 = EDGE_LOOP ( 'NONE', ( #123, #16, #98, #21 ) ) ;
#83 = APPROVAL_ROLE ( '' ) ;
#84 = APPROVAL ( #11, 'UNSPECIFIED' ) ;
#85 = AXIS2_PLACEMENT_3D ( 'NONE', #104, #113, #143 ) ;
#86 =( LENGTH_UNIT ( ) NAMED_UNIT ( * ) SI_UNIT ( .MILLI., .METRE. ) );
#87 = UNCERTAINTY_MEASURE_WITH_UNIT (LENGTH_MEASURE( 1.000000000000000082E-05 ), #86, 'distance_accuracy_value', 'NONE');
#88 = CIRCLE ( 'NONE', #85, 5.000000000000000000 ) ;
#89 = ADVANCED_FACE ( 'NONE', ( #172 ), #74, .T. ) ;
#90 = CARTESIAN_POINT ( 'NONE',  ( 0.000000000000000000, 0.000000000000000000, 0.5000000000000000000 ) ) ;
#91 = SECURITY_CLASSIFICATION ( '', '', #53 ) ;
#92 = APPROVAL_PERSON_ORGANIZATION ( #18, #84, #40 ) ;
#93 = APPROVAL_DATE_TIME ( #12, #84 ) ;
#94 = DATE_AND_TIME ( #175, #111 ) ;
#95 = DATE_TIME_ROLE ( 'classification_date' ) ;
#96 = PERSON_AND_ORGANIZATION ( #161, #28 ) ;
#97 = DATE_AND_TIME ( #72, #131 ) ;
#98 = ORIENTED_EDGE ( 'NONE', *, *, #39, .T. ) ;
#99 = ADVANCED_FACE ( 'NONE', ( #128 ), #63, .T. ) ;
#100 =( GEOMETRIC_REPRESENTATION_CONTEXT ( 3 ) GLOBAL_UNCERTAINTY_ASSIGNED_CONTEXT ( ( #87 ) ) GLOBAL_UNIT_ASSIGNED_CONTEXT ( ( #86, #114, #102 ) ) REPRESENTATION_CONTEXT ( 'NONE', 'WORKASPACE' ) );
#101 = LINE ( 'NONE', #156, #13 ) ;
#102 =( NAMED_UNIT ( * ) SI_UNIT ( $, .STERADIAN. ) SOLID_ANGLE_UNIT ( ) );
#103 = DIRECTION ( 'NONE',  ( -0.000000000000000000, -0.000000000000000000, -1.000000000000000000 ) ) ;
#104 = CARTESIAN_POINT ( 'NONE',  ( 0.000000000000000000, 0.000000000000000000, 0.000000000000000000 ) ) ;
#105 = APPROVAL_STATUS ( 'not_yet_approved' ) ;
#106 = LOCAL_TIME ( 14, 8, 30.00000000000000000, #148 ) ;
#107 = CALENDAR_DATE ( 2022, 15, 3 ) ;
#108 = AXIS2_PLACEMENT_3D ( 'NONE', #145, #24, #25 ) ;
#109 = ORIENTED_EDGE ( 'NONE', *, *, #39, .F. ) ;
#110 = ORIENTED_EDGE ( 'NONE', *, *, #171, .F. ) ;
#111 = LOCAL_TIME ( 14, 8, 30.00000000000000000, #29 ) ;
#112 = CYLINDRICAL_SURFACE ( 'NONE', #33, 5.000000000000000000 ) ;
#113 = DIRECTION ( 'NONE',  ( 0.000000000000000000, 0.000000000000000000, 1.000000000000000000 ) ) ;
#114 =( NAMED_UNIT ( * ) PLANE_ANGLE_UNIT ( ) SI_UNIT ( $, .RADIAN. ) );
#115 = CC_DESIGN_DATE_AND_TIME_ASSIGNMENT ( #138, #41, ( #59 ) ) ;
#116 = AXIS2_PLACEMENT_3D ( 'NONE', #43, #44, #142 ) ;
#117 = CARTESIAN_POINT ( 'NONE',  ( 0.000000000000000000, 0.000000000000000000, 0.5000000000000000000 ) ) ;
#118 = CALENDAR_DATE ( 2022, 15, 3 ) ;
#119 = COORDINATED_UNIVERSAL_TIME_OFFSET ( 5, 0, .BEHIND. ) ;
#120 = CIRCLE ( 'NONE', #108, 5.000000000000000000 ) ;
#121 = PERSON_AND_ORGANIZATION ( #161, #28 ) ;
#122 = APPROVAL_ROLE ( '' ) ;
#123 = ORIENTED_EDGE ( 'NONE', *, *, #160, .F. ) ;
#124 = APPROVAL_DATE_TIME ( #51, #129 ) ;
#125 = LOCAL_TIME ( 14, 8, 30.00000000000000000, #64 ) ;
#126 = EDGE_LOOP ( 'NONE', ( #110, #109 ) ) ;
#127 = DIRECTION ( 'NONE',  ( 0.000000000000000000, 0.000000000000000000, 1.000000000000000000 ) ) ;
#128 = FACE_OUTER_BOUND ( 'NONE', #57, .T. ) ;
#129 = APPROVAL ( #27, 'UNSPECIFIED' ) ;
#130 = CARTESIAN_POINT ( 'NONE',  ( 0.000000000000000000, 0.000000000000000000, 0.5000000000000000000 ) ) ;
#131 = LOCAL_TIME ( 14, 8, 30.00000000000000000, #119 ) ;
#132 = COORDINATED_UNIVERSAL_TIME_OFFSET ( 5, 0, .BEHIND. ) ;
#133 = APPROVAL ( #105, 'UNSPECIFIED' ) ;
#134 = CC_DESIGN_PERSON_AND_ORGANIZATION_ASSIGNMENT ( #75, #155, ( #10 ) ) ;
#135 = VERTEX_POINT ( 'NONE', #50 ) ;
#136 = EDGE_CURVE ( 'NONE', #2, #135, #61, .T. ) ;
#137 = VERTEX_POINT ( 'NONE', #169 ) ;
#138 = DATE_AND_TIME ( #32, #159 ) ;
#139 = AXIS2_PLACEMENT_3D ( 'NONE', #36, #45, #38 ) ;
#140 = MANIFOLD_SOLID_BREP ( 'Boss-Extrude1', #49 ) ;
#141 = CARTESIAN_POINT ( 'NONE',  ( -5.000000000000000000, 0.000000000000000000, 0.5000000000000000000 ) ) ;
#142 = DIRECTION ( 'NONE',  ( 1.000000000000000000, 0.000000000000000000, -0.000000000000000000 ) ) ;
#143 = DIRECTION ( 'NONE',  ( 1.000000000000000000, 0.000000000000000000, 0.000000000000000000 ) ) ;
#144 = CARTESIAN_POINT ( 'NONE',  ( 0.000000000000000000, 0.000000000000000000, 0.000000000000000000 ) ) ;
#145 = CARTESIAN_POINT ( 'NONE',  ( 0.000000000000000000, 0.000000000000000000, 0.5000000000000000000 ) ) ;
#146 = AXIS2_PLACEMENT_3D ( 'NONE', #90, #6, #35 ) ;
#147 = CC_DESIGN_PERSON_AND_ORGANIZATION_ASSIGNMENT ( #55, #162, ( #91 ) ) ;
#148 = COORDINATED_UNIVERSAL_TIME_OFFSET ( 5, 0, .BEHIND. ) ;
#149 = CC_DESIGN_SECURITY_CLASSIFICATION ( #91, ( #166 ) ) ;
#150 = CC_DESIGN_PERSON_AND_ORGANIZATION_ASSIGNMENT ( #31, #78, ( #59 ) ) ;
#151 = PERSON_AND_ORGANIZATION ( #161, #28 ) ;
#152 = ORIENTED_EDGE ( 'NONE', *, *, #66, .F. ) ;
#153 = AXIS2_PLACEMENT_3D ( 'NONE', #62, #47, #37 ) ;
#154 = DIRECTION ( 'NONE',  ( -0.000000000000000000, -0.000000000000000000, -1.000000000000000000 ) ) ;
#155 = PERSON_AND_ORGANIZATION_ROLE ( 'design_owner' ) ;
#156 = CARTESIAN_POINT ( 'NONE',  ( 5.000000000000000000, 6.123233995736766282E-16, 0.5000000000000000000 ) ) ;
#157 = DIRECTION ( 'NONE',  ( -1.000000000000000000, 0.000000000000000000, 0.000000000000000000 ) ) ;
#158 = SHAPE_DEFINITION_REPRESENTATION ( #5, #42 ) ;
#159 = LOCAL_TIME ( 14, 8, 30.00000000000000000, #132 ) ;
#160 = EDGE_CURVE ( 'NONE', #34, #2, #120, .T. ) ;
#161 = PERSON ( 'UNSPECIFIED', 'UNSPECIFIED', 'UNSPECIFIED', ('UNSPECIFIED'), ('UNSPECIFIED'), ('UNSPECIFIED') ) ;
#162 = PERSON_AND_ORGANIZATION_ROLE ( 'classification_officer' ) ;
#163 = CIRCLE ( 'NONE', #153, 5.000000000000000000 ) ;
#164 = CARTESIAN_POINT ( 'NONE',  ( -5.000000000000000000, 0.000000000000000000, 0.5000000000000000000 ) ) ;
#165 = ORIENTED_EDGE ( 'NONE', *, *, #136, .T. ) ;
#166 = PRODUCT_DEFINITION_FORMATION_WITH_SPECIFIED_SOURCE ( 'ANY', '', #10, .NOT_KNOWN. ) ;
#167 = DIRECTION ( 'NONE',  ( -1.000000000000000000, 0.000000000000000000, 0.000000000000000000 ) ) ;
#168 = DIRECTION ( 'NONE',  ( -0.000000000000000000, -0.000000000000000000, -1.000000000000000000 ) ) ;
#169 = CARTESIAN_POINT ( 'NONE',  ( 5.000000000000000000, 6.123233995736766282E-16, 0.000000000000000000 ) ) ;
#170 = CC_DESIGN_PERSON_AND_ORGANIZATION_ASSIGNMENT ( #121, #67, ( #166 ) ) ;
#171 = EDGE_CURVE ( 'NONE', #135, #137, #163, .T. ) ;
#172 = FACE_OUTER_BOUND ( 'NONE', #56, .T. ) ;
#173 = PERSON_AND_ORGANIZATION_ROLE ( 'creator' ) ;
#174 = APPROVAL_PERSON_ORGANIZATION ( #151, #129, #83 ) ;
#175 = CALENDAR_DATE ( 2022, 15, 3 ) ;
ENDSEC;
END-ISO-10303-21;
