ISO-10303-21;
HEADER;
FILE_DESCRIPTION (( 'STEP AP203' ),
    '1' );
FILE_NAME ('Web Model 45572_45644.step',
    '2017-04-10T16:46:38',
    ( '' ),
    ( '' ),
    'SwSTEP 2.0',
    'SolidWorks 2016',
    '' );
FILE_SCHEMA (( 'CONFIG_CONTROL_DESIGN' ));
ENDSEC;

DATA;
#1 = LINE ( 'NONE', #116, #106 ) ;
#2 = PRODUCT_RELATED_PRODUCT_CATEGORY ( 'detail', '', ( #33 ) ) ;
#3 = LOCAL_TIME ( 12, 46, 38.00000000000000000, #39 ) ;
#4 = APPROVAL_STATUS ( 'not_yet_approved' ) ;
#5 = ADVANCED_FACE ( 'NONE', ( #18 ), #14, .T. ) ;
#6 = CC_DESIGN_SECURITY_CLASSIFICATION ( #30, ( #76 ) ) ;
#7 = FACE_OUTER_BOUND ( 'NONE', #120, .T. ) ;
#8 = DIRECTION ( 'NONE',  ( -0.0000000000000000000, -0.0000000000000000000, -1.000000000000000000 ) ) ;
#9 = APPROVAL_DATE_TIME ( #41, #72 ) ;
#10 = MANIFOLD_SOLID_BREP ( 'Extrude1', #156 ) ;
#11 = PERSON ( 'UNSPECIFIED', 'UNSPECIFIED', 'UNSPECIFIED', ('UNSPECIFIED'), ('UNSPECIFIED'), ('UNSPECIFIED') ) ;
#12 = CARTESIAN_POINT ( 'NONE',  ( 0.0000000000000000000, 0.0000000000000000000, 0.0000000000000000000 ) ) ;
#13 = FACE_OUTER_BOUND ( 'NONE', #149, .T. ) ;
#14 = PLANE ( 'NONE',  #99 ) ;
#15 = CC_DESIGN_APPROVAL ( #17, ( #30 ) ) ;
#16 = APPROVAL_PERSON_ORGANIZATION ( #46, #72, #98 ) ;
#17 = APPROVAL ( #60, 'UNSPECIFIED' ) ;
#18 = FACE_OUTER_BOUND ( 'NONE', #53, .T. ) ;
#19 = COORDINATED_UNIVERSAL_TIME_OFFSET ( 5, 0, .BEHIND. ) ;
#20 = LOCAL_TIME ( 12, 46, 38.00000000000000000, #55 ) ;
#21 = CC_DESIGN_DATE_AND_TIME_ASSIGNMENT ( #107, #71, ( #30 ) ) ;
#22 = CARTESIAN_POINT ( 'NONE',  ( 0.0000000000000000000, 0.0000000000000000000, 3.000000000000000000 ) ) ;
#23 = ORGANIZATION ( 'UNSPECIFIED', 'UNSPECIFIED', '' ) ;
#24 = CARTESIAN_POINT ( 'NONE',  ( 0.0000000000000000000, 0.0000000000000000000, 3.000000000000000000 ) ) ;
#25 = CC_DESIGN_PERSON_AND_ORGANIZATION_ASSIGNMENT ( #73, #159, ( #30 ) ) ;
#26 = APPROVAL_ROLE ( '' ) ;
#27 = APPROVAL_DATE_TIME ( #64, #17 ) ;
#28 = DIRECTION ( 'NONE',  ( 1.000000000000000000, 0.0000000000000000000, 0.0000000000000000000 ) ) ;
#29 = CARTESIAN_POINT ( 'NONE',  ( 0.0000000000000000000, 0.0000000000000000000, 0.0000000000000000000 ) ) ;
#30 = SECURITY_CLASSIFICATION ( '', '', #90 ) ;
#31 = DIRECTION ( 'NONE',  ( -0.0000000000000000000, -0.0000000000000000000, -1.000000000000000000 ) ) ;
#32 = APPROVAL_PERSON_ORGANIZATION ( #66, #17, #144 ) ;
#33 = PRODUCT ( 'Web Model 45572_45644', 'Web Model 45572_45644', '', ( #135 ) ) ;
#34 = CC_DESIGN_PERSON_AND_ORGANIZATION_ASSIGNMENT ( #111, #103, ( #76 ) ) ;
#35 = CARTESIAN_POINT ( 'NONE',  ( 25.00000000000000000, 3.061616997868383000E-015, 0.0000000000000000000 ) ) ;
#36 = CYLINDRICAL_SURFACE ( 'NONE', #142, 25.00000000000000000 ) ;
#37 = APPLICATION_CONTEXT ( 'configuration controlled 3d designs of mechanical parts and assemblies' ) ;
#38 = UNCERTAINTY_MEASURE_WITH_UNIT (LENGTH_MEASURE( 1.000000000000000100E-005 ), #61, 'distance_accuracy_value', 'NONE');
#39 = COORDINATED_UNIVERSAL_TIME_OFFSET ( 5, 0, .BEHIND. ) ;
#40 = CARTESIAN_POINT ( 'NONE',  ( 25.00000000000000000, 3.061616997868383000E-015, 3.000000000000000000 ) ) ;
#41 = DATE_AND_TIME ( #80, #117 ) ;
#42 = ORIENTED_EDGE ( 'NONE', *, *, #70, .T. ) ;
#43 = EDGE_CURVE ( 'NONE', #69, #108, #44, .T. ) ;
#44 = CIRCLE ( 'NONE', #47, 25.00000000000000000 ) ;
#45 = CARTESIAN_POINT ( 'NONE',  ( -25.00000000000000000, 0.0000000000000000000, 3.000000000000000000 ) ) ;
#46 = PERSON_AND_ORGANIZATION ( #11, #23 ) ;
#47 = AXIS2_PLACEMENT_3D ( 'NONE', #105, #131, #28 ) ;
#48 = DIRECTION ( 'NONE',  ( 0.0000000000000000000, 0.0000000000000000000, 1.000000000000000000 ) ) ;
#49 = CARTESIAN_POINT ( 'NONE',  ( 0.0000000000000000000, 0.0000000000000000000, 3.000000000000000000 ) ) ;
#50 = ORIENTED_EDGE ( 'NONE', *, *, #136, .F. ) ;
#51 = PERSON_AND_ORGANIZATION ( #11, #23 ) ;
#52 = ADVANCED_FACE ( 'NONE', ( #13 ), #118, .F. ) ;
#53 = EDGE_LOOP ( 'NONE', ( #42, #126 ) ) ;
#54 = DIRECTION ( 'NONE',  ( 1.000000000000000000, 0.0000000000000000000, 0.0000000000000000000 ) ) ;
#55 = COORDINATED_UNIVERSAL_TIME_OFFSET ( 5, 0, .BEHIND. ) ;
#56 = EDGE_CURVE ( 'NONE', #133, #108, #77, .T. ) ;
#57 = EDGE_CURVE ( 'NONE', #108, #69, #86, .T. ) ;
#58 = ADVANCED_BREP_SHAPE_REPRESENTATION ( 'Web Model 45572_45644', ( #10, #109 ), #147 ) ;
#59 = DIRECTION ( 'NONE',  ( -1.000000000000000000, 0.0000000000000000000, 0.0000000000000000000 ) ) ;
#60 = APPROVAL_STATUS ( 'not_yet_approved' ) ;
#61 =( LENGTH_UNIT ( ) NAMED_UNIT ( * ) SI_UNIT ( .MILLI., .METRE. ) );
#62 = CC_DESIGN_PERSON_AND_ORGANIZATION_ASSIGNMENT ( #152, #95, ( #76 ) ) ;
#63 = APPLICATION_PROTOCOL_DEFINITION ( 'international standard', 'config_control_design', 1994, #37 ) ;
#64 = DATE_AND_TIME ( #101, #137 ) ;
#65 = PERSON_AND_ORGANIZATION_ROLE ( 'creator' ) ;
#66 = PERSON_AND_ORGANIZATION ( #11, #23 ) ;
#67 = CC_DESIGN_APPROVAL ( #72, ( #76 ) ) ;
#68 = CIRCLE ( 'NONE', #154, 25.00000000000000000 ) ;
#69 = VERTEX_POINT ( 'NONE', #35 ) ;
#70 = EDGE_CURVE ( 'NONE', #133, #125, #115, .T. ) ;
#71 = DATE_TIME_ROLE ( 'classification_date' ) ;
#72 = APPROVAL ( #4, 'UNSPECIFIED' ) ;
#73 = PERSON_AND_ORGANIZATION ( #11, #23 ) ;
#74 =( NAMED_UNIT ( * ) SI_UNIT ( $, .STERADIAN. ) SOLID_ANGLE_UNIT ( ) );
#75 = DIRECTION ( 'NONE',  ( 1.000000000000000000, 0.0000000000000000000, -0.0000000000000000000 ) ) ;
#76 = PRODUCT_DEFINITION_FORMATION_WITH_SPECIFIED_SOURCE ( 'ANY', '', #33, .NOT_KNOWN. ) ;
#77 = LINE ( 'NONE', #45, #153 ) ;
#78 = CARTESIAN_POINT ( 'NONE',  ( 0.0000000000000000000, 0.0000000000000000000, 0.0000000000000000000 ) ) ;
#79 = ORIENTED_EDGE ( 'NONE', *, *, #57, .F. ) ;
#80 = CALENDAR_DATE ( 2017, 10, 4 ) ;
#81 = CC_DESIGN_DATE_AND_TIME_ASSIGNMENT ( #84, #114, ( #96 ) ) ;
#82 = ADVANCED_FACE ( 'NONE', ( #7 ), #36, .T. ) ;
#83 = ORIENTED_EDGE ( 'NONE', *, *, #70, .F. ) ;
#84 = DATE_AND_TIME ( #122, #158 ) ;
#85 = CARTESIAN_POINT ( 'NONE',  ( -25.00000000000000000, 0.0000000000000000000, 0.0000000000000000000 ) ) ;
#86 = CIRCLE ( 'NONE', #171, 25.00000000000000000 ) ;
#87 = CC_DESIGN_PERSON_AND_ORGANIZATION_ASSIGNMENT ( #51, #65, ( #96 ) ) ;
#88 = CC_DESIGN_APPROVAL ( #91, ( #96 ) ) ;
#89 = APPROVAL_DATE_TIME ( #124, #91 ) ;
#90 = SECURITY_CLASSIFICATION_LEVEL ( 'unclassified' ) ;
#91 = APPROVAL ( #138, 'UNSPECIFIED' ) ;
#92 = APPLICATION_CONTEXT ( 'configuration controlled 3d designs of mechanical parts and assemblies' ) ;
#93 = CARTESIAN_POINT ( 'NONE',  ( 0.0000000000000000000, 0.0000000000000000000, 3.000000000000000000 ) ) ;
#94 = APPROVAL_PERSON_ORGANIZATION ( #128, #91, #26 ) ;
#95 = PERSON_AND_ORGANIZATION_ROLE ( 'creator' ) ;
#96 = PRODUCT_DEFINITION ( 'UNKNOWN', '', #76, #162 ) ;
#97 = PERSON_AND_ORGANIZATION_ROLE ( 'design_owner' ) ;
#98 = APPROVAL_ROLE ( '' ) ;
#99 = AXIS2_PLACEMENT_3D ( 'NONE', #93, #121, #75 ) ;
#100 = DIRECTION ( 'NONE',  ( -0.0000000000000000000, -0.0000000000000000000, -1.000000000000000000 ) ) ;
#101 = CALENDAR_DATE ( 2017, 10, 4 ) ;
#102 = DIRECTION ( 'NONE',  ( 0.0000000000000000000, 0.0000000000000000000, 1.000000000000000000 ) ) ;
#103 = PERSON_AND_ORGANIZATION_ROLE ( 'design_supplier' ) ;
#104 = CC_DESIGN_PERSON_AND_ORGANIZATION_ASSIGNMENT ( #168, #97, ( #33 ) ) ;
#105 = CARTESIAN_POINT ( 'NONE',  ( 0.0000000000000000000, 0.0000000000000000000, 0.0000000000000000000 ) ) ;
#106 = VECTOR ( 'NONE', #8, 1000.000000000000000 ) ;
#107 = DATE_AND_TIME ( #146, #3 ) ;
#108 = VERTEX_POINT ( 'NONE', #85 ) ;
#109 = AXIS2_PLACEMENT_3D ( 'NONE', #29, #173, #54 ) ;
#110 = SHAPE_DEFINITION_REPRESENTATION ( #169, #58 ) ;
#111 = PERSON_AND_ORGANIZATION ( #11, #23 ) ;
#112 = APPLICATION_PROTOCOL_DEFINITION ( 'international standard', 'config_control_design', 1994, #92 ) ;
#113 = DIRECTION ( 'NONE',  ( 0.0000000000000000000, 0.0000000000000000000, 1.000000000000000000 ) ) ;
#114 = DATE_TIME_ROLE ( 'creation_date' ) ;
#115 = CIRCLE ( 'NONE', #164, 25.00000000000000000 ) ;
#116 = CARTESIAN_POINT ( 'NONE',  ( 25.00000000000000000, 3.061616997868383000E-015, 3.000000000000000000 ) ) ;
#117 = LOCAL_TIME ( 12, 46, 38.00000000000000000, #155 ) ;
#118 = PLANE ( 'NONE',  #167 ) ;
#119 = DIRECTION ( 'NONE',  ( 1.000000000000000000, 0.0000000000000000000, 0.0000000000000000000 ) ) ;
#120 = EDGE_LOOP ( 'NONE', ( #161, #160, #166, #165 ) ) ;
#121 = DIRECTION ( 'NONE',  ( 0.0000000000000000000, 0.0000000000000000000, 1.000000000000000000 ) ) ;
#122 = CALENDAR_DATE ( 2017, 10, 4 ) ;
#123 = EDGE_LOOP ( 'NONE', ( #50, #83, #151, #127 ) ) ;
#124 = DATE_AND_TIME ( #163, #20 ) ;
#125 = VERTEX_POINT ( 'NONE', #40 ) ;
#126 = ORIENTED_EDGE ( 'NONE', *, *, #174, .T. ) ;
#127 = ORIENTED_EDGE ( 'NONE', *, *, #57, .T. ) ;
#128 = PERSON_AND_ORGANIZATION ( #11, #23 ) ;
#129 = CARTESIAN_POINT ( 'NONE',  ( 0.0000000000000000000, 0.0000000000000000000, 3.000000000000000000 ) ) ;
#130 = DIRECTION ( 'NONE',  ( 0.0000000000000000000, 0.0000000000000000000, 1.000000000000000000 ) ) ;
#131 = DIRECTION ( 'NONE',  ( 0.0000000000000000000, 0.0000000000000000000, 1.000000000000000000 ) ) ;
#132 = ADVANCED_FACE ( 'NONE', ( #148 ), #140, .T. ) ;
#133 = VERTEX_POINT ( 'NONE', #143 ) ;
#134 = AXIS2_PLACEMENT_3D ( 'NONE', #24, #170, #157 ) ;
#135 = MECHANICAL_CONTEXT ( 'NONE', #37, 'mechanical' ) ;
#136 = EDGE_CURVE ( 'NONE', #125, #69, #1, .T. ) ;
#137 = LOCAL_TIME ( 12, 46, 38.00000000000000000, #175 ) ;
#138 = APPROVAL_STATUS ( 'not_yet_approved' ) ;
#139 = DIRECTION ( 'NONE',  ( 1.000000000000000000, 0.0000000000000000000, -0.0000000000000000000 ) ) ;
#140 = CYLINDRICAL_SURFACE ( 'NONE', #134, 25.00000000000000000 ) ;
#141 = DIRECTION ( 'NONE',  ( 1.000000000000000000, 0.0000000000000000000, 0.0000000000000000000 ) ) ;
#142 = AXIS2_PLACEMENT_3D ( 'NONE', #49, #31, #59 ) ;
#143 = CARTESIAN_POINT ( 'NONE',  ( -25.00000000000000000, 0.0000000000000000000, 3.000000000000000000 ) ) ;
#144 = APPROVAL_ROLE ( '' ) ;
#145 = DIRECTION ( 'NONE',  ( 1.000000000000000000, 0.0000000000000000000, 0.0000000000000000000 ) ) ;
#146 = CALENDAR_DATE ( 2017, 10, 4 ) ;
#147 =( GEOMETRIC_REPRESENTATION_CONTEXT ( 3 ) GLOBAL_UNCERTAINTY_ASSIGNED_CONTEXT ( ( #38 ) ) GLOBAL_UNIT_ASSIGNED_CONTEXT ( ( #61, #172, #74 ) ) REPRESENTATION_CONTEXT ( 'NONE', 'WORKASPACE' ) );
#148 = FACE_OUTER_BOUND ( 'NONE', #123, .T. ) ;
#149 = EDGE_LOOP ( 'NONE', ( #79, #150 ) ) ;
#150 = ORIENTED_EDGE ( 'NONE', *, *, #43, .F. ) ;
#151 = ORIENTED_EDGE ( 'NONE', *, *, #56, .T. ) ;
#152 = PERSON_AND_ORGANIZATION ( #11, #23 ) ;
#153 = VECTOR ( 'NONE', #100, 1000.000000000000000 ) ;
#154 = AXIS2_PLACEMENT_3D ( 'NONE', #129, #48, #145 ) ;
#155 = COORDINATED_UNIVERSAL_TIME_OFFSET ( 5, 0, .BEHIND. ) ;
#156 = CLOSED_SHELL ( 'NONE', ( #82, #132, #5, #52 ) ) ;
#157 = DIRECTION ( 'NONE',  ( -1.000000000000000000, 0.0000000000000000000, 0.0000000000000000000 ) ) ;
#158 = LOCAL_TIME ( 12, 46, 38.00000000000000000, #19 ) ;
#159 = PERSON_AND_ORGANIZATION_ROLE ( 'classification_officer' ) ;
#160 = ORIENTED_EDGE ( 'NONE', *, *, #136, .T. ) ;
#161 = ORIENTED_EDGE ( 'NONE', *, *, #174, .F. ) ;
#162 = DESIGN_CONTEXT ( 'detailed design', #92, 'design' ) ;
#163 = CALENDAR_DATE ( 2017, 10, 4 ) ;
#164 = AXIS2_PLACEMENT_3D ( 'NONE', #22, #102, #119 ) ;
#165 = ORIENTED_EDGE ( 'NONE', *, *, #56, .F. ) ;
#166 = ORIENTED_EDGE ( 'NONE', *, *, #43, .T. ) ;
#167 = AXIS2_PLACEMENT_3D ( 'NONE', #78, #113, #139 ) ;
#168 = PERSON_AND_ORGANIZATION ( #11, #23 ) ;
#169 = PRODUCT_DEFINITION_SHAPE ( 'NONE', 'NONE',  #96 ) ;
#170 = DIRECTION ( 'NONE',  ( -0.0000000000000000000, -0.0000000000000000000, -1.000000000000000000 ) ) ;
#171 = AXIS2_PLACEMENT_3D ( 'NONE', #12, #130, #141 ) ;
#172 =( NAMED_UNIT ( * ) PLANE_ANGLE_UNIT ( ) SI_UNIT ( $, .RADIAN. ) );
#173 = DIRECTION ( 'NONE',  ( 0.0000000000000000000, 0.0000000000000000000, 1.000000000000000000 ) ) ;
#174 = EDGE_CURVE ( 'NONE', #125, #133, #68, .T. ) ;
#175 = COORDINATED_UNIVERSAL_TIME_OFFSET ( 5, 0, .BEHIND. ) ;
ENDSEC;
END-ISO-10303-21;
