ISO-10303-21;
HEADER;
FILE_DESCRIPTION (( 'STEP AP203' ),
    '1' );
FILE_NAME ('Web Model 11875_22610.step',
    '2022-06-07T18:32:10',
    ( 'WC' ),
    ( 'Windows Central' ),
    'SwSTEP 2.0',
    'SolidWorks 2021',
    '' );
FILE_SCHEMA (( 'CONFIG_CONTROL_DESIGN' ));
ENDSEC;

DATA;
#1 = CALENDAR_DATE ( 2022, 7, 6 ) ;
#2 = ADVANCED_FACE ( 'NONE', ( #116 ), #113, .T. ) ;
#3 = APPROVAL_PERSON_ORGANIZATION ( #130, #72, #118 ) ;
#4 = DATE_AND_TIME ( #1, #98 ) ;
#5 = APPLICATION_PROTOCOL_DEFINITION ( 'international standard', 'config_control_design', 1994, #22 ) ;
#6 = COORDINATED_UNIVERSAL_TIME_OFFSET ( 5, 0, .BEHIND. ) ;
#7 = PERSON_AND_ORGANIZATION ( #58, #152 ) ;
#8 = PRODUCT_DEFINITION_FORMATION_WITH_SPECIFIED_SOURCE ( 'ANY', '', #66, .NOT_KNOWN. ) ;
#9 = EDGE_LOOP ( 'NONE', ( #39, #50 ) ) ;
#10 = DESIGN_CONTEXT ( 'detailed design', #37, 'design' ) ;
#11 = VERTEX_POINT ( 'NONE', #143 ) ;
#12 = CC_DESIGN_PERSON_AND_ORGANIZATION_ASSIGNMENT ( #82, #96, ( #94 ) ) ;
#13 = AXIS2_PLACEMENT_3D ( 'NONE', #34, #109, #133 ) ;
#14 = CYLINDRICAL_SURFACE ( 'NONE', #114, 25.00000000000000000 ) ;
#15 = PERSON_AND_ORGANIZATION_ROLE ( 'creator' ) ;
#16 = PRODUCT_DEFINITION_SHAPE ( 'NONE', 'NONE',  #134 ) ;
#17 = COORDINATED_UNIVERSAL_TIME_OFFSET ( 5, 0, .BEHIND. ) ;
#18 = CIRCLE ( 'NONE', #26, 25.00000000000000000 ) ;
#19 = SECURITY_CLASSIFICATION_LEVEL ( 'unclassified' ) ;
#20 = APPROVAL_STATUS ( 'not_yet_approved' ) ;
#21 = ADVANCED_FACE ( 'NONE', ( #103 ), #86, .F. ) ;
#22 = APPLICATION_CONTEXT ( 'configuration controlled 3d designs of mechanical parts and assemblies' ) ;
#23 = PERSON_AND_ORGANIZATION ( #58, #152 ) ;
#24 = ORIENTED_EDGE ( 'NONE', *, *, #27, .F. ) ;
#25 = CARTESIAN_POINT ( 'NONE',  ( 0.000000000000000000, 0.000000000000000000, 0.5000000000000000000 ) ) ;
#26 = AXIS2_PLACEMENT_3D ( 'NONE', #115, #75, #149 ) ;
#27 = EDGE_CURVE ( 'NONE', #102, #11, #127, .T. ) ;
#28 = APPROVAL_STATUS ( 'not_yet_approved' ) ;
#29 = EDGE_CURVE ( 'NONE', #11, #102, #18, .T. ) ;
#30 =( GEOMETRIC_REPRESENTATION_CONTEXT ( 3 ) GLOBAL_UNCERTAINTY_ASSIGNED_CONTEXT ( ( #45 ) ) GLOBAL_UNIT_ASSIGNED_CONTEXT ( ( #107, #95, #93 ) ) REPRESENTATION_CONTEXT ( 'NONE', 'WORKASPACE' ) );
#31 = PERSON_AND_ORGANIZATION_ROLE ( 'design_owner' ) ;
#32 = APPROVAL_PERSON_ORGANIZATION ( #7, #169, #83 ) ;
#33 = PRODUCT_RELATED_PRODUCT_CATEGORY ( 'detail', '', ( #66 ) ) ;
#34 = CARTESIAN_POINT ( 'NONE',  ( 0.000000000000000000, 0.000000000000000000, 0.5000000000000000000 ) ) ;
#35 = CALENDAR_DATE ( 2022, 7, 6 ) ;
#36 = DATE_TIME_ROLE ( 'creation_date' ) ;
#37 = APPLICATION_CONTEXT ( 'configuration controlled 3d designs of mechanical parts and assemblies' ) ;
#38 = DIRECTION ( 'NONE',  ( 0.000000000000000000, 0.000000000000000000, 1.000000000000000000 ) ) ;
#39 = ORIENTED_EDGE ( 'NONE', *, *, #157, .F. ) ;
#40 = CIRCLE ( 'NONE', #131, 25.00000000000000000 ) ;
#41 = ADVANCED_FACE ( 'NONE', ( #67 ), #14, .T. ) ;
#42 = DIRECTION ( 'NONE',  ( 1.000000000000000000, 0.000000000000000000, 0.000000000000000000 ) ) ;
#43 = CARTESIAN_POINT ( 'NONE',  ( -25.00000000000000000, 0.000000000000000000, -0.5000000000000000000 ) ) ;
#44 = LOCAL_TIME ( 14, 32, 10.00000000000000000, #168 ) ;
#45 = UNCERTAINTY_MEASURE_WITH_UNIT (LENGTH_MEASURE( 1.000000000000000082E-05 ), #107, 'distance_accuracy_value', 'NONE');
#46 = CARTESIAN_POINT ( 'NONE',  ( 25.00000000000000000, 3.061616997868383043E-15, 0.5000000000000000000 ) ) ;
#47 = VECTOR ( 'NONE', #64, 1000.000000000000000 ) ;
#48 = DATE_AND_TIME ( #35, #44 ) ;
#49 = CARTESIAN_POINT ( 'NONE',  ( 0.000000000000000000, 0.000000000000000000, -0.5000000000000000000 ) ) ;
#50 = ORIENTED_EDGE ( 'NONE', *, *, #55, .F. ) ;
#51 = EDGE_LOOP ( 'NONE', ( #141, #53, #154, #62 ) ) ;
#52 = EDGE_CURVE ( 'NONE', #102, #61, #120, .T. ) ;
#53 = ORIENTED_EDGE ( 'NONE', *, *, #29, .F. ) ;
#54 = CARTESIAN_POINT ( 'NONE',  ( 25.00000000000000000, 3.061616997868383043E-15, 0.5000000000000000000 ) ) ;
#55 = EDGE_CURVE ( 'NONE', #61, #155, #174, .T. ) ;
#56 = CARTESIAN_POINT ( 'NONE',  ( 0.000000000000000000, 0.000000000000000000, 0.5000000000000000000 ) ) ;
#57 = DIRECTION ( 'NONE',  ( -1.000000000000000000, 0.000000000000000000, 0.000000000000000000 ) ) ;
#58 = PERSON ( 'UNSPECIFIED', 'UNSPECIFIED', 'UNSPECIFIED', ('UNSPECIFIED'), ('UNSPECIFIED'), ('UNSPECIFIED') ) ;
#59 = APPROVAL_ROLE ( '' ) ;
#60 = APPROVAL_DATE_TIME ( #69, #169 ) ;
#61 = VERTEX_POINT ( 'NONE', #150 ) ;
#62 = ORIENTED_EDGE ( 'NONE', *, *, #157, .T. ) ;
#63 = ORIENTED_EDGE ( 'NONE', *, *, #29, .T. ) ;
#64 = DIRECTION ( 'NONE',  ( -0.000000000000000000, -0.000000000000000000, -1.000000000000000000 ) ) ;
#65 = APPLICATION_PROTOCOL_DEFINITION ( 'international standard', 'config_control_design', 1994, #37 ) ;
#66 = PRODUCT ( 'Web Model 11875_22610', 'Web Model 11875_22610', '', ( #163 ) ) ;
#67 = FACE_OUTER_BOUND ( 'NONE', #156, .T. ) ;
#68 = CALENDAR_DATE ( 2022, 7, 6 ) ;
#69 = DATE_AND_TIME ( #68, #148 ) ;
#70 = CC_DESIGN_SECURITY_CLASSIFICATION ( #94, ( #8 ) ) ;
#71 = APPROVAL_STATUS ( 'not_yet_approved' ) ;
#72 = APPROVAL ( #28, 'UNSPECIFIED' ) ;
#73 = ORIENTED_EDGE ( 'NONE', *, *, #55, .T. ) ;
#74 = CC_DESIGN_APPROVAL ( #169, ( #8 ) ) ;
#75 = DIRECTION ( 'NONE',  ( 0.000000000000000000, 0.000000000000000000, 1.000000000000000000 ) ) ;
#76 = CARTESIAN_POINT ( 'NONE',  ( 0.000000000000000000, 0.000000000000000000, 0.000000000000000000 ) ) ;
#77 = CC_DESIGN_APPROVAL ( #106, ( #94 ) ) ;
#78 = DIRECTION ( 'NONE',  ( 1.000000000000000000, 0.000000000000000000, 0.000000000000000000 ) ) ;
#79 = FACE_OUTER_BOUND ( 'NONE', #172, .T. ) ;
#80 = MANIFOLD_SOLID_BREP ( 'Boss-Extrude1', #158 ) ;
#81 = AXIS2_PLACEMENT_3D ( 'NONE', #76, #89, #42 ) ;
#82 = PERSON_AND_ORGANIZATION ( #58, #152 ) ;
#83 = APPROVAL_ROLE ( '' ) ;
#84 = EDGE_CURVE ( 'NONE', #11, #155, #160, .T. ) ;
#85 = ORIENTED_EDGE ( 'NONE', *, *, #27, .T. ) ;
#86 = PLANE ( 'NONE',  #162 ) ;
#87 = ORIENTED_EDGE ( 'NONE', *, *, #52, .T. ) ;
#88 = ORIENTED_EDGE ( 'NONE', *, *, #84, .F. ) ;
#89 = DIRECTION ( 'NONE',  ( 0.000000000000000000, 0.000000000000000000, 1.000000000000000000 ) ) ;
#90 = CC_DESIGN_DATE_AND_TIME_ASSIGNMENT ( #100, #153, ( #94 ) ) ;
#91 = AXIS2_PLACEMENT_3D ( 'NONE', #25, #175, #101 ) ;
#92 = APPROVAL_DATE_TIME ( #4, #72 ) ;
#93 =( NAMED_UNIT ( * ) SI_UNIT ( $, .STERADIAN. ) SOLID_ANGLE_UNIT ( ) );
#94 = SECURITY_CLASSIFICATION ( '', '', #19 ) ;
#95 =( NAMED_UNIT ( * ) PLANE_ANGLE_UNIT ( ) SI_UNIT ( $, .RADIAN. ) );
#96 = PERSON_AND_ORGANIZATION_ROLE ( 'classification_officer' ) ;
#97 = PERSON_AND_ORGANIZATION_ROLE ( 'creator' ) ;
#98 = LOCAL_TIME ( 14, 32, 10.00000000000000000, #17 ) ;
#99 = CC_DESIGN_PERSON_AND_ORGANIZATION_ASSIGNMENT ( #167, #138, ( #8 ) ) ;
#100 = DATE_AND_TIME ( #126, #129 ) ;
#101 = DIRECTION ( 'NONE',  ( 1.000000000000000000, 0.000000000000000000, 0.000000000000000000 ) ) ;
#102 = VERTEX_POINT ( 'NONE', #54 ) ;
#103 = FACE_OUTER_BOUND ( 'NONE', #9, .T. ) ;
#104 = CC_DESIGN_PERSON_AND_ORGANIZATION_ASSIGNMENT ( #23, #97, ( #8 ) ) ;
#105 = LOCAL_TIME ( 14, 32, 10.00000000000000000, #161 ) ;
#106 = APPROVAL ( #71, 'UNSPECIFIED' ) ;
#107 =( LENGTH_UNIT ( ) NAMED_UNIT ( * ) SI_UNIT ( .MILLI., .METRE. ) );
#108 = CARTESIAN_POINT ( 'NONE',  ( 0.000000000000000000, 0.000000000000000000, -0.5000000000000000000 ) ) ;
#109 = DIRECTION ( 'NONE',  ( 0.000000000000000000, 0.000000000000000000, 1.000000000000000000 ) ) ;
#110 = VECTOR ( 'NONE', #165, 1000.000000000000000 ) ;
#111 = APPROVAL_DATE_TIME ( #48, #106 ) ;
#112 = PERSON_AND_ORGANIZATION ( #58, #152 ) ;
#113 = CYLINDRICAL_SURFACE ( 'NONE', #171, 25.00000000000000000 ) ;
#114 = AXIS2_PLACEMENT_3D ( 'NONE', #56, #135, #57 ) ;
#115 = CARTESIAN_POINT ( 'NONE',  ( 0.000000000000000000, 0.000000000000000000, 0.5000000000000000000 ) ) ;
#116 = FACE_OUTER_BOUND ( 'NONE', #51, .T. ) ;
#117 = DIRECTION ( 'NONE',  ( 1.000000000000000000, 0.000000000000000000, -0.000000000000000000 ) ) ;
#118 = APPROVAL_ROLE ( '' ) ;
#119 = ADVANCED_BREP_SHAPE_REPRESENTATION ( 'Web Model 11875_22610', ( #80, #81 ), #30 ) ;
#120 = LINE ( 'NONE', #46, #47 ) ;
#121 = CARTESIAN_POINT ( 'NONE',  ( 0.000000000000000000, 0.000000000000000000, -0.5000000000000000000 ) ) ;
#122 = CALENDAR_DATE ( 2022, 7, 6 ) ;
#123 = DIRECTION ( 'NONE',  ( 0.000000000000000000, 0.000000000000000000, 1.000000000000000000 ) ) ;
#124 = DATE_AND_TIME ( #122, #105 ) ;
#125 = CC_DESIGN_PERSON_AND_ORGANIZATION_ASSIGNMENT ( #145, #15, ( #134 ) ) ;
#126 = CALENDAR_DATE ( 2022, 7, 6 ) ;
#127 = CIRCLE ( 'NONE', #91, 25.00000000000000000 ) ;
#128 = ADVANCED_FACE ( 'NONE', ( #79 ), #164, .T. ) ;
#129 = LOCAL_TIME ( 14, 32, 10.00000000000000000, #139 ) ;
#130 = PERSON_AND_ORGANIZATION ( #58, #152 ) ;
#131 = AXIS2_PLACEMENT_3D ( 'NONE', #121, #136, #78 ) ;
#132 = CARTESIAN_POINT ( 'NONE',  ( -25.00000000000000000, 0.000000000000000000, 0.5000000000000000000 ) ) ;
#133 = DIRECTION ( 'NONE',  ( 1.000000000000000000, 0.000000000000000000, -0.000000000000000000 ) ) ;
#134 = PRODUCT_DEFINITION ( 'UNKNOWN', '', #8, #10 ) ;
#135 = DIRECTION ( 'NONE',  ( -0.000000000000000000, -0.000000000000000000, -1.000000000000000000 ) ) ;
#136 = DIRECTION ( 'NONE',  ( 0.000000000000000000, 0.000000000000000000, 1.000000000000000000 ) ) ;
#137 = CC_DESIGN_DATE_AND_TIME_ASSIGNMENT ( #124, #36, ( #134 ) ) ;
#138 = PERSON_AND_ORGANIZATION_ROLE ( 'design_supplier' ) ;
#139 = COORDINATED_UNIVERSAL_TIME_OFFSET ( 5, 0, .BEHIND. ) ;
#140 = DIRECTION ( 'NONE',  ( -1.000000000000000000, 0.000000000000000000, 0.000000000000000000 ) ) ;
#141 = ORIENTED_EDGE ( 'NONE', *, *, #52, .F. ) ;
#142 = CC_DESIGN_PERSON_AND_ORGANIZATION_ASSIGNMENT ( #144, #31, ( #66 ) ) ;
#143 = CARTESIAN_POINT ( 'NONE',  ( -25.00000000000000000, 0.000000000000000000, 0.5000000000000000000 ) ) ;
#144 = PERSON_AND_ORGANIZATION ( #58, #152 ) ;
#145 = PERSON_AND_ORGANIZATION ( #58, #152 ) ;
#146 = APPROVAL_PERSON_ORGANIZATION ( #112, #106, #59 ) ;
#147 = DIRECTION ( 'NONE',  ( 1.000000000000000000, 0.000000000000000000, 0.000000000000000000 ) ) ;
#148 = LOCAL_TIME ( 14, 32, 10.00000000000000000, #6 ) ;
#149 = DIRECTION ( 'NONE',  ( 1.000000000000000000, 0.000000000000000000, 0.000000000000000000 ) ) ;
#150 = CARTESIAN_POINT ( 'NONE',  ( 25.00000000000000000, 3.061616997868383043E-15, -0.5000000000000000000 ) ) ;
#151 = SHAPE_DEFINITION_REPRESENTATION ( #16, #119 ) ;
#152 = ORGANIZATION ( 'UNSPECIFIED', 'UNSPECIFIED', '' ) ;
#153 = DATE_TIME_ROLE ( 'classification_date' ) ;
#154 = ORIENTED_EDGE ( 'NONE', *, *, #84, .T. ) ;
#155 = VERTEX_POINT ( 'NONE', #43 ) ;
#156 = EDGE_LOOP ( 'NONE', ( #24, #87, #73, #88 ) ) ;
#157 = EDGE_CURVE ( 'NONE', #155, #61, #40, .T. ) ;
#158 = CLOSED_SHELL ( 'NONE', ( #41, #2, #128, #21 ) ) ;
#159 = CC_DESIGN_APPROVAL ( #72, ( #134 ) ) ;
#160 = LINE ( 'NONE', #132, #110 ) ;
#161 = COORDINATED_UNIVERSAL_TIME_OFFSET ( 5, 0, .BEHIND. ) ;
#162 = AXIS2_PLACEMENT_3D ( 'NONE', #49, #38, #117 ) ;
#163 = MECHANICAL_CONTEXT ( 'NONE', #22, 'mechanical' ) ;
#164 = PLANE ( 'NONE',  #13 ) ;
#165 = DIRECTION ( 'NONE',  ( -0.000000000000000000, -0.000000000000000000, -1.000000000000000000 ) ) ;
#166 = AXIS2_PLACEMENT_3D ( 'NONE', #108, #123, #147 ) ;
#167 = PERSON_AND_ORGANIZATION ( #58, #152 ) ;
#168 = COORDINATED_UNIVERSAL_TIME_OFFSET ( 5, 0, .BEHIND. ) ;
#169 = APPROVAL ( #20, 'UNSPECIFIED' ) ;
#170 = DIRECTION ( 'NONE',  ( -0.000000000000000000, -0.000000000000000000, -1.000000000000000000 ) ) ;
#171 = AXIS2_PLACEMENT_3D ( 'NONE', #173, #170, #140 ) ;
#172 = EDGE_LOOP ( 'NONE', ( #63, #85 ) ) ;
#173 = CARTESIAN_POINT ( 'NONE',  ( 0.000000000000000000, 0.000000000000000000, 0.5000000000000000000 ) ) ;
#174 = CIRCLE ( 'NONE', #166, 25.00000000000000000 ) ;
#175 = DIRECTION ( 'NONE',  ( 0.000000000000000000, 0.000000000000000000, 1.000000000000000000 ) ) ;
ENDSEC;
END-ISO-10303-21;
