ISO-10303-21;
HEADER;
FILE_DESCRIPTION (( 'STEP AP203' ),
    '1' );
FILE_NAME ('Web Model 68410.STEP',
    '2017-01-31T19:58:54',
    ( '' ),
    ( '' ),
    'SwSTEP 2.0',
    'SolidWorks 2016',
    '' );
FILE_SCHEMA (( 'CONFIG_CONTROL_DESIGN' ));
ENDSEC;

DATA;
#1 = CARTESIAN_POINT ( 'NONE',  ( -17.49999999999999600, -17.50000000000000700, 3.000000000000000000 ) ) ;
#2 = PERSON_AND_ORGANIZATION ( #82, #41 ) ;
#3 = ORIENTED_EDGE ( 'NONE', *, *, #179, .T. ) ;
#4 = DIRECTION ( 'NONE',  ( -1.000000000000000000, -1.982541115402065100E-016, 0.0000000000000000000 ) ) ;
#5 = APPROVAL ( #30, 'UNSPECIFIED' ) ;
#6 = CARTESIAN_POINT ( 'NONE',  ( 0.0000000000000000000, 0.0000000000000000000, 0.0000000000000000000 ) ) ;
#7 = APPROVAL_PERSON_ORGANIZATION ( #54, #97, #157 ) ;
#8 = CARTESIAN_POINT ( 'NONE',  ( 17.49999999999999600, 17.50000000000000000, 3.000000000000000000 ) ) ;
#9 = CARTESIAN_POINT ( 'NONE',  ( 17.49999999999999600, 17.50000000000000000, 3.000000000000000000 ) ) ;
#10 = ORIENTED_EDGE ( 'NONE', *, *, #233, .T. ) ;
#11 = CC_DESIGN_PERSON_AND_ORGANIZATION_ASSIGNMENT ( #2, #229, ( #192 ) ) ;
#12 = VECTOR ( 'NONE', #47, 1000.000000000000000 ) ;
#13 = FACE_OUTER_BOUND ( 'NONE', #183, .T. ) ;
#14 = CC_DESIGN_PERSON_AND_ORGANIZATION_ASSIGNMENT ( #62, #209, ( #237 ) ) ;
#15 = LOCAL_TIME ( 14, 58, 54.00000000000000000, #18 ) ;
#16 = ORIENTED_EDGE ( 'NONE', *, *, #210, .T. ) ;
#17 = ORIENTED_EDGE ( 'NONE', *, *, #161, .F. ) ;
#18 = COORDINATED_UNIVERSAL_TIME_OFFSET ( 5, 0, .BEHIND. ) ;
#19 = LINE ( 'NONE', #135, #148 ) ;
#20 = CARTESIAN_POINT ( 'NONE',  ( -17.50000000000000000, 17.49999999999999600, 0.0000000000000000000 ) ) ;
#21 = PLANE ( 'NONE',  #112 ) ;
#22 = VERTEX_POINT ( 'NONE', #133 ) ;
#23 = DIRECTION ( 'NONE',  ( 0.0000000000000000000, 0.0000000000000000000, -1.000000000000000000 ) ) ;
#24 = DIRECTION ( 'NONE',  ( -0.0000000000000000000, -0.0000000000000000000, -1.000000000000000000 ) ) ;
#25 = CC_DESIGN_APPROVAL ( #175, ( #199 ) ) ;
#26 = CARTESIAN_POINT ( 'NONE',  ( 17.50000000000000400, -17.50000000000000400, 0.0000000000000000000 ) ) ;
#27 = VERTEX_POINT ( 'NONE', #20 ) ;
#28 = DIRECTION ( 'NONE',  ( 9.912705577010325500E-017, -1.000000000000000000, 0.0000000000000000000 ) ) ;
#29 = VECTOR ( 'NONE', #101, 1000.000000000000000 ) ;
#30 = APPROVAL_STATUS ( 'not_yet_approved' ) ;
#31 = APPROVAL_PERSON_ORGANIZATION ( #114, #175, #128 ) ;
#32 = ADVANCED_BREP_SHAPE_REPRESENTATION ( 'Web Model 68410', ( #79, #221 ), #127 ) ;
#33 = EDGE_CURVE ( 'NONE', #110, #27, #142, .T. ) ;
#34 = PRODUCT ( 'Web Model 68410', 'Web Model 68410', '', ( #156 ) ) ;
#35 = VECTOR ( 'NONE', #153, 1000.000000000000000 ) ;
#36 = CC_DESIGN_APPROVAL ( #97, ( #237 ) ) ;
#37 = CARTESIAN_POINT ( 'NONE',  ( -17.50000000000000000, 17.49999999999999600, 3.000000000000000000 ) ) ;
#38 = CC_DESIGN_DATE_AND_TIME_ASSIGNMENT ( #205, #191, ( #192 ) ) ;
#39 = DIRECTION ( 'NONE',  ( -0.0000000000000000000, -0.0000000000000000000, -1.000000000000000000 ) ) ;
#40 = LINE ( 'NONE', #171, #224 ) ;
#41 = ORGANIZATION ( 'UNSPECIFIED', 'UNSPECIFIED', '' ) ;
#42 = CARTESIAN_POINT ( 'NONE',  ( 17.49999999999999600, 17.50000000000000000, 0.0000000000000000000 ) ) ;
#43 = DIRECTION ( 'NONE',  ( -1.000000000000000000, -9.912705577010325500E-017, 0.0000000000000000000 ) ) ;
#44 = LINE ( 'NONE', #134, #12 ) ;
#45 = ORIENTED_EDGE ( 'NONE', *, *, #151, .T. ) ;
#46 = VERTEX_POINT ( 'NONE', #75 ) ;
#47 = DIRECTION ( 'NONE',  ( 1.000000000000000000, 9.912705577010325500E-017, -0.0000000000000000000 ) ) ;
#48 = PERSON_AND_ORGANIZATION_ROLE ( 'creator' ) ;
#49 = APPROVAL_DATE_TIME ( #52, #5 ) ;
#50 = DATE_TIME_ROLE ( 'creation_date' ) ;
#51 = UNCERTAINTY_MEASURE_WITH_UNIT (LENGTH_MEASURE( 1.000000000000000100E-005 ), #77, 'distance_accuracy_value', 'NONE');
#52 = DATE_AND_TIME ( #99, #236 ) ;
#53 = PERSON_AND_ORGANIZATION ( #82, #41 ) ;
#54 = PERSON_AND_ORGANIZATION ( #82, #41 ) ;
#55 = DATE_AND_TIME ( #118, #226 ) ;
#56 = CARTESIAN_POINT ( 'NONE',  ( 17.49999999999999600, 17.50000000000000000, 3.000000000000000000 ) ) ;
#57 = DIRECTION ( 'NONE',  ( 1.000000000000000000, 9.912705577010325500E-017, -0.0000000000000000000 ) ) ;
#58 = EDGE_LOOP ( 'NONE', ( #71, #208, #150, #158 ) ) ;
#59 = CARTESIAN_POINT ( 'NONE',  ( 17.50000000000000400, -17.50000000000000400, 0.0000000000000000000 ) ) ;
#60 = DIRECTION ( 'NONE',  ( 9.912705577010325500E-017, -1.000000000000000000, 0.0000000000000000000 ) ) ;
#61 = CARTESIAN_POINT ( 'NONE',  ( -17.49999999999999600, -17.50000000000000700, 3.000000000000000000 ) ) ;
#62 = PERSON_AND_ORGANIZATION ( #82, #41 ) ;
#63 = LOCAL_TIME ( 14, 58, 54.00000000000000000, #72 ) ;
#64 = FACE_OUTER_BOUND ( 'NONE', #188, .T. ) ;
#65 = CARTESIAN_POINT ( 'NONE',  ( -17.49999999999999600, -17.50000000000000700, 0.0000000000000000000 ) ) ;
#66 = CC_DESIGN_APPROVAL ( #5, ( #192 ) ) ;
#67 = CARTESIAN_POINT ( 'NONE',  ( 17.49999999999999600, 17.50000000000000000, 3.000000000000000000 ) ) ;
#68 = ORIENTED_EDGE ( 'NONE', *, *, #88, .T. ) ;
#69 = APPROVAL_ROLE ( '' ) ;
#70 = FACE_OUTER_BOUND ( 'NONE', #155, .T. ) ;
#71 = ORIENTED_EDGE ( 'NONE', *, *, #202, .T. ) ;
#72 = COORDINATED_UNIVERSAL_TIME_OFFSET ( 5, 0, .BEHIND. ) ;
#73 = ADVANCED_FACE ( 'NONE', ( #70 ), #170, .F. ) ;
#74 = LINE ( 'NONE', #78, #29 ) ;
#75 = CARTESIAN_POINT ( 'NONE',  ( 17.50000000000000400, -17.50000000000000400, 3.000000000000000000 ) ) ;
#76 = VECTOR ( 'NONE', #172, 1000.000000000000000 ) ;
#77 =( LENGTH_UNIT ( ) NAMED_UNIT ( * ) SI_UNIT ( .MILLI., .METRE. ) );
#78 = CARTESIAN_POINT ( 'NONE',  ( 17.49999999999999600, 17.50000000000000000, 0.0000000000000000000 ) ) ;
#79 = MANIFOLD_SOLID_BREP ( 'Extrude1', #217 ) ;
#80 = DIRECTION ( 'NONE',  ( 1.000000000000000000, 1.982541115402065100E-016, 0.0000000000000000000 ) ) ;
#81 = LINE ( 'NONE', #152, #35 ) ;
#82 = PERSON ( 'UNSPECIFIED', 'UNSPECIFIED', 'UNSPECIFIED', ('UNSPECIFIED'), ('UNSPECIFIED'), ('UNSPECIFIED') ) ;
#83 = PERSON_AND_ORGANIZATION_ROLE ( 'design_owner' ) ;
#84 = AXIS2_PLACEMENT_3D ( 'NONE', #220, #23, #222 ) ;
#85 = APPLICATION_PROTOCOL_DEFINITION ( 'international standard', 'config_control_design', 1994, #139 ) ;
#86 = PERSON_AND_ORGANIZATION ( #82, #41 ) ;
#87 = APPLICATION_CONTEXT ( 'configuration controlled 3d designs of mechanical parts and assemblies' ) ;
#88 = EDGE_CURVE ( 'NONE', #109, #162, #234, .T. ) ;
#89 = DESIGN_CONTEXT ( 'detailed design', #87, 'design' ) ;
#90 = ORIENTED_EDGE ( 'NONE', *, *, #143, .T. ) ;
#91 = PRODUCT_RELATED_PRODUCT_CATEGORY ( 'detail', '', ( #34 ) ) ;
#92 = CALENDAR_DATE ( 2017, 31, 1 ) ;
#93 = VERTEX_POINT ( 'NONE', #59 ) ;
#94 = DIRECTION ( 'NONE',  ( 1.982541115402065100E-016, -1.000000000000000000, 0.0000000000000000000 ) ) ;
#95 = ADVANCED_FACE ( 'NONE', ( #64 ), #218, .T. ) ;
#96 = DIRECTION ( 'NONE',  ( -9.912705577010325500E-017, 1.000000000000000000, 0.0000000000000000000 ) ) ;
#97 = APPROVAL ( #159, 'UNSPECIFIED' ) ;
#98 = PLANE ( 'NONE',  #174 ) ;
#99 = CALENDAR_DATE ( 2017, 31, 1 ) ;
#100 = DATE_AND_TIME ( #108, #63 ) ;
#101 = DIRECTION ( 'NONE',  ( -1.982541115402065100E-016, 1.000000000000000000, -0.0000000000000000000 ) ) ;
#102 = DIRECTION ( 'NONE',  ( 1.982541115402065100E-016, -1.000000000000000000, 0.0000000000000000000 ) ) ;
#103 = AXIS2_PLACEMENT_3D ( 'NONE', #204, #185, #43 ) ;
#104 =( NAMED_UNIT ( * ) SI_UNIT ( $, .STERADIAN. ) SOLID_ANGLE_UNIT ( ) );
#105 = ORIENTED_EDGE ( 'NONE', *, *, #179, .F. ) ;
#106 = DIRECTION ( 'NONE',  ( 1.000000000000000000, 0.0000000000000000000, 0.0000000000000000000 ) ) ;
#107 = LOCAL_TIME ( 14, 58, 54.00000000000000000, #212 ) ;
#108 = CALENDAR_DATE ( 2017, 31, 1 ) ;
#109 = VERTEX_POINT ( 'NONE', #1 ) ;
#110 = VERTEX_POINT ( 'NONE', #37 ) ;
#111 = ORIENTED_EDGE ( 'NONE', *, *, #161, .T. ) ;
#112 = AXIS2_PLACEMENT_3D ( 'NONE', #166, #57, #96 ) ;
#113 = PERSON_AND_ORGANIZATION ( #82, #41 ) ;
#114 = PERSON_AND_ORGANIZATION ( #82, #41 ) ;
#115 = ORIENTED_EDGE ( 'NONE', *, *, #169, .F. ) ;
#116 = ADVANCED_FACE ( 'NONE', ( #138 ), #21, .F. ) ;
#117 = CARTESIAN_POINT ( 'NONE',  ( -17.49999999999999600, -17.50000000000000700, 3.000000000000000000 ) ) ;
#118 = CALENDAR_DATE ( 2017, 31, 1 ) ;
#119 = LINE ( 'NONE', #8, #178 ) ;
#120 = ORIENTED_EDGE ( 'NONE', *, *, #33, .F. ) ;
#121 = DIRECTION ( 'NONE',  ( -1.000000000000000000, 0.0000000000000000000, -0.0000000000000000000 ) ) ;
#122 = VECTOR ( 'NONE', #24, 1000.000000000000000 ) ;
#123 = PRODUCT_DEFINITION_SHAPE ( 'NONE', 'NONE',  #199 ) ;
#124 = CARTESIAN_POINT ( 'NONE',  ( 17.49999999999999600, 17.50000000000000000, 3.000000000000000000 ) ) ;
#125 = ORIENTED_EDGE ( 'NONE', *, *, #189, .T. ) ;
#126 = PERSON_AND_ORGANIZATION_ROLE ( 'creator' ) ;
#127 =( GEOMETRIC_REPRESENTATION_CONTEXT ( 3 ) GLOBAL_UNCERTAINTY_ASSIGNED_CONTEXT ( ( #51 ) ) GLOBAL_UNIT_ASSIGNED_CONTEXT ( ( #77, #140, #104 ) ) REPRESENTATION_CONTEXT ( 'NONE', 'WORKASPACE' ) );
#128 = APPROVAL_ROLE ( '' ) ;
#129 = ORIENTED_EDGE ( 'NONE', *, *, #233, .F. ) ;
#130 = ADVANCED_FACE ( 'NONE', ( #207 ), #228, .F. ) ;
#131 = CARTESIAN_POINT ( 'NONE',  ( -17.50000000000000000, 17.49999999999999600, 3.000000000000000000 ) ) ;
#132 = VECTOR ( 'NONE', #186, 1000.000000000000000 ) ;
#133 = CARTESIAN_POINT ( 'NONE',  ( 17.49999999999999600, 17.50000000000000000, 0.0000000000000000000 ) ) ;
#134 = CARTESIAN_POINT ( 'NONE',  ( 17.50000000000000400, -17.50000000000000400, 3.000000000000000000 ) ) ;
#135 = CARTESIAN_POINT ( 'NONE',  ( -17.50000000000000000, 17.49999999999999600, 3.000000000000000000 ) ) ;
#136 = COORDINATED_UNIVERSAL_TIME_OFFSET ( 5, 0, .BEHIND. ) ;
#137 = DIRECTION ( 'NONE',  ( -1.982541115402065100E-016, 1.000000000000000000, -0.0000000000000000000 ) ) ;
#138 = FACE_OUTER_BOUND ( 'NONE', #58, .T. ) ;
#139 = APPLICATION_CONTEXT ( 'configuration controlled 3d designs of mechanical parts and assemblies' ) ;
#140 =( NAMED_UNIT ( * ) PLANE_ANGLE_UNIT ( ) SI_UNIT ( $, .RADIAN. ) );
#141 = SECURITY_CLASSIFICATION_LEVEL ( 'unclassified' ) ;
#142 = LINE ( 'NONE', #131, #122 ) ;
#143 = EDGE_CURVE ( 'NONE', #110, #109, #19, .T. ) ;
#144 = PERSON_AND_ORGANIZATION ( #82, #41 ) ;
#145 = ORIENTED_EDGE ( 'NONE', *, *, #202, .F. ) ;
#146 = APPROVAL_PERSON_ORGANIZATION ( #113, #5, #69 ) ;
#147 = VECTOR ( 'NONE', #206, 1000.000000000000000 ) ;
#148 = VECTOR ( 'NONE', #28, 1000.000000000000000 ) ;
#149 = ADVANCED_FACE ( 'NONE', ( #13 ), #203, .F. ) ;
#150 = ORIENTED_EDGE ( 'NONE', *, *, #143, .F. ) ;
#151 = EDGE_CURVE ( 'NONE', #195, #110, #119, .T. ) ;
#152 = CARTESIAN_POINT ( 'NONE',  ( 17.50000000000000400, -17.50000000000000400, 3.000000000000000000 ) ) ;
#153 = DIRECTION ( 'NONE',  ( -0.0000000000000000000, -0.0000000000000000000, -1.000000000000000000 ) ) ;
#154 = APPROVAL_DATE_TIME ( #223, #97 ) ;
#155 = EDGE_LOOP ( 'NONE', ( #3, #17, #163, #219 ) ) ;
#156 = MECHANICAL_CONTEXT ( 'NONE', #139, 'mechanical' ) ;
#157 = APPROVAL_ROLE ( '' ) ;
#158 = ORIENTED_EDGE ( 'NONE', *, *, #33, .T. ) ;
#159 = APPROVAL_STATUS ( 'not_yet_approved' ) ;
#160 = VECTOR ( 'NONE', #39, 1000.000000000000000 ) ;
#161 = EDGE_CURVE ( 'NONE', #195, #22, #173, .T. ) ;
#162 = VERTEX_POINT ( 'NONE', #65 ) ;
#163 = ORIENTED_EDGE ( 'NONE', *, *, #189, .F. ) ;
#164 = DIRECTION ( 'NONE',  ( -1.000000000000000000, -1.982541115402065100E-016, 0.0000000000000000000 ) ) ;
#165 = AXIS2_PLACEMENT_3D ( 'NONE', #124, #102, #80 ) ;
#166 = CARTESIAN_POINT ( 'NONE',  ( -17.50000000000000000, 17.49999999999999600, 3.000000000000000000 ) ) ;
#167 = LINE ( 'NONE', #42, #76 ) ;
#168 = VECTOR ( 'NONE', #137, 1000.000000000000000 ) ;
#169 = EDGE_CURVE ( 'NONE', #46, #93, #81, .T. ) ;
#170 = PLANE ( 'NONE',  #214 ) ;
#171 = CARTESIAN_POINT ( 'NONE',  ( -17.50000000000000000, 17.49999999999999600, 0.0000000000000000000 ) ) ;
#172 = DIRECTION ( 'NONE',  ( -1.000000000000000000, -1.982541115402065100E-016, 0.0000000000000000000 ) ) ;
#173 = LINE ( 'NONE', #9, #132 ) ;
#174 = AXIS2_PLACEMENT_3D ( 'NONE', #61, #187, #121 ) ;
#175 = APPROVAL ( #232, 'UNSPECIFIED' ) ;
#176 = CC_DESIGN_PERSON_AND_ORGANIZATION_ASSIGNMENT ( #86, #83, ( #34 ) ) ;
#177 = APPROVAL_DATE_TIME ( #100, #175 ) ;
#178 = VECTOR ( 'NONE', #4, 1000.000000000000000 ) ;
#179 = EDGE_CURVE ( 'NONE', #93, #22, #74, .T. ) ;
#180 = FACE_OUTER_BOUND ( 'NONE', #227, .T. ) ;
#181 = CC_DESIGN_PERSON_AND_ORGANIZATION_ASSIGNMENT ( #144, #126, ( #237 ) ) ;
#182 = SHAPE_DEFINITION_REPRESENTATION ( #123, #32 ) ;
#183 = EDGE_LOOP ( 'NONE', ( #213, #115, #190, #68 ) ) ;
#184 = CC_DESIGN_DATE_AND_TIME_ASSIGNMENT ( #55, #50, ( #199 ) ) ;
#185 = DIRECTION ( 'NONE',  ( -9.912705577010325500E-017, 1.000000000000000000, 0.0000000000000000000 ) ) ;
#186 = DIRECTION ( 'NONE',  ( -0.0000000000000000000, -0.0000000000000000000, -1.000000000000000000 ) ) ;
#187 = DIRECTION ( 'NONE',  ( 0.0000000000000000000, 0.0000000000000000000, -1.000000000000000000 ) ) ;
#188 = EDGE_LOOP ( 'NONE', ( #145, #129, #105, #216 ) ) ;
#189 = EDGE_CURVE ( 'NONE', #46, #195, #215, .T. ) ;
#190 = ORIENTED_EDGE ( 'NONE', *, *, #210, .F. ) ;
#191 = DATE_TIME_ROLE ( 'classification_date' ) ;
#192 = SECURITY_CLASSIFICATION ( '', '', #141 ) ;
#193 = CALENDAR_DATE ( 2017, 31, 1 ) ;
#194 = EDGE_LOOP ( 'NONE', ( #10, #120, #201, #111 ) ) ;
#195 = VERTEX_POINT ( 'NONE', #225 ) ;
#196 = CC_DESIGN_SECURITY_CLASSIFICATION ( #192, ( #237 ) ) ;
#197 = LINE ( 'NONE', #26, #147 ) ;
#198 = ADVANCED_FACE ( 'NONE', ( #180 ), #98, .F. ) ;
#199 = PRODUCT_DEFINITION ( 'UNKNOWN', '', #237, #89 ) ;
#200 = COORDINATED_UNIVERSAL_TIME_OFFSET ( 5, 0, .BEHIND. ) ;
#201 = ORIENTED_EDGE ( 'NONE', *, *, #151, .F. ) ;
#202 = EDGE_CURVE ( 'NONE', #27, #162, #40, .T. ) ;
#203 = PLANE ( 'NONE',  #103 ) ;
#204 = CARTESIAN_POINT ( 'NONE',  ( 17.50000000000000400, -17.50000000000000400, 3.000000000000000000 ) ) ;
#205 = DATE_AND_TIME ( #92, #107 ) ;
#206 = DIRECTION ( 'NONE',  ( 1.000000000000000000, 9.912705577010325500E-017, -0.0000000000000000000 ) ) ;
#207 = FACE_OUTER_BOUND ( 'NONE', #194, .T. ) ;
#208 = ORIENTED_EDGE ( 'NONE', *, *, #88, .F. ) ;
#209 = PERSON_AND_ORGANIZATION_ROLE ( 'design_supplier' ) ;
#210 = EDGE_CURVE ( 'NONE', #109, #46, #44, .T. ) ;
#211 = APPLICATION_PROTOCOL_DEFINITION ( 'international standard', 'config_control_design', 1994, #87 ) ;
#212 = COORDINATED_UNIVERSAL_TIME_OFFSET ( 5, 0, .BEHIND. ) ;
#213 = ORIENTED_EDGE ( 'NONE', *, *, #230, .T. ) ;
#214 = AXIS2_PLACEMENT_3D ( 'NONE', #56, #164, #94 ) ;
#215 = LINE ( 'NONE', #67, #168 ) ;
#216 = ORIENTED_EDGE ( 'NONE', *, *, #230, .F. ) ;
#217 = CLOSED_SHELL ( 'NONE', ( #116, #149, #73, #130, #198, #95 ) ) ;
#218 = PLANE ( 'NONE',  #84 ) ;
#219 = ORIENTED_EDGE ( 'NONE', *, *, #169, .T. ) ;
#220 = CARTESIAN_POINT ( 'NONE',  ( -17.49999999999999600, -17.50000000000000700, 0.0000000000000000000 ) ) ;
#221 = AXIS2_PLACEMENT_3D ( 'NONE', #6, #231, #106 ) ;
#222 = DIRECTION ( 'NONE',  ( -1.000000000000000000, 0.0000000000000000000, -0.0000000000000000000 ) ) ;
#223 = DATE_AND_TIME ( #193, #15 ) ;
#224 = VECTOR ( 'NONE', #60, 1000.000000000000000 ) ;
#225 = CARTESIAN_POINT ( 'NONE',  ( 17.49999999999999600, 17.50000000000000000, 3.000000000000000000 ) ) ;
#226 = LOCAL_TIME ( 14, 58, 54.00000000000000000, #136 ) ;
#227 = EDGE_LOOP ( 'NONE', ( #90, #16, #125, #45 ) ) ;
#228 = PLANE ( 'NONE',  #165 ) ;
#229 = PERSON_AND_ORGANIZATION_ROLE ( 'classification_officer' ) ;
#230 = EDGE_CURVE ( 'NONE', #162, #93, #197, .T. ) ;
#231 = DIRECTION ( 'NONE',  ( 0.0000000000000000000, 0.0000000000000000000, 1.000000000000000000 ) ) ;
#232 = APPROVAL_STATUS ( 'not_yet_approved' ) ;
#233 = EDGE_CURVE ( 'NONE', #22, #27, #167, .T. ) ;
#234 = LINE ( 'NONE', #117, #160 ) ;
#235 = CC_DESIGN_PERSON_AND_ORGANIZATION_ASSIGNMENT ( #53, #48, ( #199 ) ) ;
#236 = LOCAL_TIME ( 14, 58, 54.00000000000000000, #200 ) ;
#237 = PRODUCT_DEFINITION_FORMATION_WITH_SPECIFIED_SOURCE ( 'ANY', '', #34, .NOT_KNOWN. ) ;
ENDSEC;
END-ISO-10303-21;
