ISO-10303-21;
HEADER;
FILE_DESCRIPTION (( 'STEP AP203' ),
    '1' );
FILE_NAME ('Web Model 88357.STEP',
    '2017-02-01T16:20:41',
    ( '' ),
    ( '' ),
    'SwSTEP 2.0',
    'SolidWorks 2016',
    '' );
FILE_SCHEMA (( 'CONFIG_CONTROL_DESIGN' ));
ENDSEC;

DATA;
#1 = EDGE_CURVE ( 'NONE', #122, #42, #116, .T. ) ;
#2 = ORIENTED_EDGE ( 'NONE', *, *, #52, .T. ) ;
#3 = CARTESIAN_POINT ( 'NONE',  ( 0.0000000000000000000, 1.100000000000000100, 0.0000000000000000000 ) ) ;
#4 = CARTESIAN_POINT ( 'NONE',  ( 0.0000000000000000000, 1.100000000000000100, 0.0000000000000000000 ) ) ;
#5 = COORDINATED_UNIVERSAL_TIME_OFFSET ( 5, 0, .BEHIND. ) ;
#6 = DIRECTION ( 'NONE',  ( 0.0000000000000000000, -0.0000000000000000000, 1.000000000000000000 ) ) ;
#7 = DIRECTION ( 'NONE',  ( 1.000000000000000000, 0.0000000000000000000, 0.0000000000000000000 ) ) ;
#8 = CALENDAR_DATE ( 2017, 1, 2 ) ;
#9 = PERSON_AND_ORGANIZATION_ROLE ( 'classification_officer' ) ;
#10 = PERSON_AND_ORGANIZATION_ROLE ( 'creator' ) ;
#11 = PERSON_AND_ORGANIZATION_ROLE ( 'creator' ) ;
#12 = ORIENTED_EDGE ( 'NONE', *, *, #161, .T. ) ;
#13 = ORIENTED_EDGE ( 'NONE', *, *, #64, .F. ) ;
#14 = CARTESIAN_POINT ( 'NONE',  ( 0.0000000000000000000, 1.100000000000000100, -5.000000000000000000 ) ) ;
#15 = DIRECTION ( 'NONE',  ( 0.0000000000000000000, 0.0000000000000000000, 1.000000000000000000 ) ) ;
#16 = CARTESIAN_POINT ( 'NONE',  ( 0.0000000000000000000, 0.0000000000000000000, 0.0000000000000000000 ) ) ;
#17 = ORIENTED_EDGE ( 'NONE', *, *, #55, .F. ) ;
#18 = APPLICATION_PROTOCOL_DEFINITION ( 'international standard', 'config_control_design', 1994, #20 ) ;
#19 = DATE_AND_TIME ( #147, #129 ) ;
#20 = APPLICATION_CONTEXT ( 'configuration controlled 3d designs of mechanical parts and assemblies' ) ;
#21 = CC_DESIGN_PERSON_AND_ORGANIZATION_ASSIGNMENT ( #131, #10, ( #31 ) ) ;
#22 = DATE_AND_TIME ( #8, #44 ) ;
#23 = LINE ( 'NONE', #46, #162 ) ;
#24 = CC_DESIGN_PERSON_AND_ORGANIZATION_ASSIGNMENT ( #85, #11, ( #49 ) ) ;
#25 = APPROVAL_DATE_TIME ( #19, #63 ) ;
#26 = VERTEX_POINT ( 'NONE', #14 ) ;
#27 = AXIS2_PLACEMENT_3D ( 'NONE', #16, #57, #155 ) ;
#28 = COORDINATED_UNIVERSAL_TIME_OFFSET ( 5, 0, .BEHIND. ) ;
#29 = PERSON_AND_ORGANIZATION ( #35, #170 ) ;
#30 = FACE_OUTER_BOUND ( 'NONE', #83, .T. ) ;
#31 = PRODUCT_DEFINITION ( 'UNKNOWN', '', #49, #67 ) ;
#32 = DIRECTION ( 'NONE',  ( 0.0000000000000000000, 0.0000000000000000000, 1.000000000000000000 ) ) ;
#33 = CARTESIAN_POINT ( 'NONE',  ( 6.123233995736766300E-016, 1.100000000000000100, 5.000000000000000000 ) ) ;
#34 = CARTESIAN_POINT ( 'NONE',  ( 0.0000000000000000000, 0.0000000000000000000, -5.000000000000000000 ) ) ;
#35 = PERSON ( 'UNSPECIFIED', 'UNSPECIFIED', 'UNSPECIFIED', ('UNSPECIFIED'), ('UNSPECIFIED'), ('UNSPECIFIED') ) ;
#36 = CC_DESIGN_PERSON_AND_ORGANIZATION_ASSIGNMENT ( #115, #79, ( #154 ) ) ;
#37 = LOCAL_TIME ( 11, 20, 41.00000000000000000, #69 ) ;
#38 = APPROVAL_ROLE ( '' ) ;
#39 = SHAPE_DEFINITION_REPRESENTATION ( #148, #65 ) ;
#40 = APPROVAL_STATUS ( 'not_yet_approved' ) ;
#41 = PERSON_AND_ORGANIZATION ( #35, #170 ) ;
#42 = VERTEX_POINT ( 'NONE', #34 ) ;
#43 = UNCERTAINTY_MEASURE_WITH_UNIT (LENGTH_MEASURE( 1.000000000000000100E-005 ), #106, 'distance_accuracy_value', 'NONE');
#44 = LOCAL_TIME ( 11, 20, 41.00000000000000000, #112 ) ;
#45 = CYLINDRICAL_SURFACE ( 'NONE', #150, 5.000000000000000000 ) ;
#46 = CARTESIAN_POINT ( 'NONE',  ( 0.0000000000000000000, 1.100000000000000100, -5.000000000000000000 ) ) ;
#47 = ORIENTED_EDGE ( 'NONE', *, *, #1, .F. ) ;
#48 = DIRECTION ( 'NONE',  ( 0.0000000000000000000, 0.0000000000000000000, 1.000000000000000000 ) ) ;
#49 = PRODUCT_DEFINITION_FORMATION_WITH_SPECIFIED_SOURCE ( 'ANY', '', #154, .NOT_KNOWN. ) ;
#50 = APPLICATION_CONTEXT ( 'configuration controlled 3d designs of mechanical parts and assemblies' ) ;
#51 = APPROVAL_PERSON_ORGANIZATION ( #41, #75, #38 ) ;
#52 = EDGE_CURVE ( 'NONE', #26, #42, #23, .T. ) ;
#53 = ORIENTED_EDGE ( 'NONE', *, *, #55, .T. ) ;
#54 = ORIENTED_EDGE ( 'NONE', *, *, #161, .F. ) ;
#55 = EDGE_CURVE ( 'NONE', #149, #26, #174, .T. ) ;
#56 = ORIENTED_EDGE ( 'NONE', *, *, #78, .T. ) ;
#57 = DIRECTION ( 'NONE',  ( 0.0000000000000000000, 1.000000000000000000, 0.0000000000000000000 ) ) ;
#58 = FACE_OUTER_BOUND ( 'NONE', #97, .T. ) ;
#59 = AXIS2_PLACEMENT_3D ( 'NONE', #4, #164, #91 ) ;
#60 = ADVANCED_FACE ( 'NONE', ( #159 ), #77, .T. ) ;
#61 = CALENDAR_DATE ( 2017, 1, 2 ) ;
#62 = APPROVAL_DATE_TIME ( #137, #68 ) ;
#63 = APPROVAL ( #143, 'UNSPECIFIED' ) ;
#64 = EDGE_CURVE ( 'NONE', #26, #149, #113, .T. ) ;
#65 = ADVANCED_BREP_SHAPE_REPRESENTATION ( 'Web Model 88357', ( #76, #146 ), #160 ) ;
#66 = DATE_AND_TIME ( #173, #37 ) ;
#67 = DESIGN_CONTEXT ( 'detailed design', #20, 'design' ) ;
#68 = APPROVAL ( #40, 'UNSPECIFIED' ) ;
#69 = COORDINATED_UNIVERSAL_TIME_OFFSET ( 5, 0, .BEHIND. ) ;
#70 = EDGE_LOOP ( 'NONE', ( #100, #47 ) ) ;
#71 = DIRECTION ( 'NONE',  ( 0.0000000000000000000, 0.0000000000000000000, 1.000000000000000000 ) ) ;
#72 = DIRECTION ( 'NONE',  ( 0.0000000000000000000, 1.000000000000000000, 0.0000000000000000000 ) ) ;
#73 = DIRECTION ( 'NONE',  ( 0.0000000000000000000, 0.0000000000000000000, -1.000000000000000000 ) ) ;
#74 = CARTESIAN_POINT ( 'NONE',  ( 0.0000000000000000000, 0.0000000000000000000, 0.0000000000000000000 ) ) ;
#75 = APPROVAL ( #158, 'UNSPECIFIED' ) ;
#76 = MANIFOLD_SOLID_BREP ( 'Boss-Extrude1', #81 ) ;
#77 = PLANE ( 'NONE',  #138 ) ;
#78 = EDGE_CURVE ( 'NONE', #42, #122, #125, .T. ) ;
#79 = PERSON_AND_ORGANIZATION_ROLE ( 'design_owner' ) ;
#80 = LINE ( 'NONE', #128, #134 ) ;
#81 = CLOSED_SHELL ( 'NONE', ( #108, #132, #60, #82 ) ) ;
#82 = ADVANCED_FACE ( 'NONE', ( #86 ), #90, .F. ) ;
#83 = EDGE_LOOP ( 'NONE', ( #54, #13, #2, #56 ) ) ;
#84 = AXIS2_PLACEMENT_3D ( 'NONE', #3, #166, #32 ) ;
#85 = PERSON_AND_ORGANIZATION ( #35, #170 ) ;
#86 = FACE_OUTER_BOUND ( 'NONE', #70, .T. ) ;
#87 = DIRECTION ( 'NONE',  ( 0.0000000000000000000, 1.000000000000000000, 0.0000000000000000000 ) ) ;
#88 = CYLINDRICAL_SURFACE ( 'NONE', #59, 5.000000000000000000 ) ;
#89 = DIRECTION ( 'NONE',  ( 0.0000000000000000000, 1.000000000000000000, 0.0000000000000000000 ) ) ;
#90 = PLANE ( 'NONE',  #27 ) ;
#91 = DIRECTION ( 'NONE',  ( 0.0000000000000000000, 0.0000000000000000000, -1.000000000000000000 ) ) ;
#92 = APPROVAL_PERSON_ORGANIZATION ( #29, #68, #95 ) ;
#93 = ORIENTED_EDGE ( 'NONE', *, *, #52, .F. ) ;
#94 = CC_DESIGN_APPROVAL ( #68, ( #49 ) ) ;
#95 = APPROVAL_ROLE ( '' ) ;
#96 = SECURITY_CLASSIFICATION_LEVEL ( 'unclassified' ) ;
#97 = EDGE_LOOP ( 'NONE', ( #17, #12, #118, #93 ) ) ;
#98 = DATE_TIME_ROLE ( 'creation_date' ) ;
#99 = PRODUCT_RELATED_PRODUCT_CATEGORY ( 'detail', '', ( #154 ) ) ;
#100 = ORIENTED_EDGE ( 'NONE', *, *, #78, .F. ) ;
#101 = AXIS2_PLACEMENT_3D ( 'NONE', #141, #87, #71 ) ;
#102 = DATE_AND_TIME ( #114, #111 ) ;
#103 = AXIS2_PLACEMENT_3D ( 'NONE', #74, #121, #15 ) ;
#104 =( NAMED_UNIT ( * ) PLANE_ANGLE_UNIT ( ) SI_UNIT ( $, .RADIAN. ) );
#105 = DIRECTION ( 'NONE',  ( -0.0000000000000000000, -1.000000000000000000, -0.0000000000000000000 ) ) ;
#106 =( LENGTH_UNIT ( ) NAMED_UNIT ( * ) SI_UNIT ( .MILLI., .METRE. ) );
#107 = AXIS2_PLACEMENT_3D ( 'NONE', #120, #89, #48 ) ;
#108 = ADVANCED_FACE ( 'NONE', ( #58 ), #88, .T. ) ;
#109 = PERSON_AND_ORGANIZATION_ROLE ( 'design_supplier' ) ;
#110 = CC_DESIGN_PERSON_AND_ORGANIZATION_ASSIGNMENT ( #133, #9, ( #126 ) ) ;
#111 = LOCAL_TIME ( 11, 20, 41.00000000000000000, #5 ) ;
#112 = COORDINATED_UNIVERSAL_TIME_OFFSET ( 5, 0, .BEHIND. ) ;
#113 = CIRCLE ( 'NONE', #84, 5.000000000000000000 ) ;
#114 = CALENDAR_DATE ( 2017, 1, 2 ) ;
#115 = PERSON_AND_ORGANIZATION ( #35, #170 ) ;
#116 = CIRCLE ( 'NONE', #101, 5.000000000000000000 ) ;
#117 =( NAMED_UNIT ( * ) SI_UNIT ( $, .STERADIAN. ) SOLID_ANGLE_UNIT ( ) );
#118 = ORIENTED_EDGE ( 'NONE', *, *, #1, .T. ) ;
#119 = CC_DESIGN_DATE_AND_TIME_ASSIGNMENT ( #102, #135, ( #126 ) ) ;
#120 = CARTESIAN_POINT ( 'NONE',  ( 0.0000000000000000000, 1.100000000000000100, 0.0000000000000000000 ) ) ;
#121 = DIRECTION ( 'NONE',  ( 0.0000000000000000000, 1.000000000000000000, 0.0000000000000000000 ) ) ;
#122 = VERTEX_POINT ( 'NONE', #142 ) ;
#123 = APPROVAL_ROLE ( '' ) ;
#124 = MECHANICAL_CONTEXT ( 'NONE', #50, 'mechanical' ) ;
#125 = CIRCLE ( 'NONE', #103, 5.000000000000000000 ) ;
#126 = SECURITY_CLASSIFICATION ( '', '', #96 ) ;
#127 = COORDINATED_UNIVERSAL_TIME_OFFSET ( 5, 0, .BEHIND. ) ;
#128 = CARTESIAN_POINT ( 'NONE',  ( 6.123233995736766300E-016, 1.100000000000000100, 5.000000000000000000 ) ) ;
#129 = LOCAL_TIME ( 11, 20, 41.00000000000000000, #28 ) ;
#130 = DIRECTION ( 'NONE',  ( -0.0000000000000000000, -1.000000000000000000, -0.0000000000000000000 ) ) ;
#131 = PERSON_AND_ORGANIZATION ( #35, #170 ) ;
#132 = ADVANCED_FACE ( 'NONE', ( #30 ), #45, .T. ) ;
#133 = PERSON_AND_ORGANIZATION ( #35, #170 ) ;
#134 = VECTOR ( 'NONE', #140, 1000.000000000000000 ) ;
#135 = DATE_TIME_ROLE ( 'classification_date' ) ;
#136 = CC_DESIGN_SECURITY_CLASSIFICATION ( #126, ( #49 ) ) ;
#137 = DATE_AND_TIME ( #61, #168 ) ;
#138 = AXIS2_PLACEMENT_3D ( 'NONE', #156, #72, #6 ) ;
#139 = CARTESIAN_POINT ( 'NONE',  ( 0.0000000000000000000, 1.100000000000000100, 0.0000000000000000000 ) ) ;
#140 = DIRECTION ( 'NONE',  ( -0.0000000000000000000, -1.000000000000000000, -0.0000000000000000000 ) ) ;
#141 = CARTESIAN_POINT ( 'NONE',  ( 0.0000000000000000000, 0.0000000000000000000, 0.0000000000000000000 ) ) ;
#142 = CARTESIAN_POINT ( 'NONE',  ( 6.123233995736766300E-016, 0.0000000000000000000, 5.000000000000000000 ) ) ;
#143 = APPROVAL_STATUS ( 'not_yet_approved' ) ;
#144 = ORIENTED_EDGE ( 'NONE', *, *, #64, .T. ) ;
#145 = PERSON_AND_ORGANIZATION ( #35, #170 ) ;
#146 = AXIS2_PLACEMENT_3D ( 'NONE', #152, #169, #7 ) ;
#147 = CALENDAR_DATE ( 2017, 1, 2 ) ;
#148 = PRODUCT_DEFINITION_SHAPE ( 'NONE', 'NONE',  #31 ) ;
#149 = VERTEX_POINT ( 'NONE', #33 ) ;
#150 = AXIS2_PLACEMENT_3D ( 'NONE', #139, #130, #73 ) ;
#151 = CC_DESIGN_APPROVAL ( #63, ( #126 ) ) ;
#152 = CARTESIAN_POINT ( 'NONE',  ( 0.0000000000000000000, 0.0000000000000000000, 0.0000000000000000000 ) ) ;
#153 = EDGE_LOOP ( 'NONE', ( #144, #53 ) ) ;
#154 = PRODUCT ( 'Web Model 88357', 'Web Model 88357', '', ( #124 ) ) ;
#155 = DIRECTION ( 'NONE',  ( 0.0000000000000000000, -0.0000000000000000000, 1.000000000000000000 ) ) ;
#156 = CARTESIAN_POINT ( 'NONE',  ( 0.0000000000000000000, 1.100000000000000100, 0.0000000000000000000 ) ) ;
#157 = APPLICATION_PROTOCOL_DEFINITION ( 'international standard', 'config_control_design', 1994, #50 ) ;
#158 = APPROVAL_STATUS ( 'not_yet_approved' ) ;
#159 = FACE_OUTER_BOUND ( 'NONE', #153, .T. ) ;
#160 =( GEOMETRIC_REPRESENTATION_CONTEXT ( 3 ) GLOBAL_UNCERTAINTY_ASSIGNED_CONTEXT ( ( #43 ) ) GLOBAL_UNIT_ASSIGNED_CONTEXT ( ( #106, #104, #117 ) ) REPRESENTATION_CONTEXT ( 'NONE', 'WORKASPACE' ) );
#161 = EDGE_CURVE ( 'NONE', #149, #122, #80, .T. ) ;
#162 = VECTOR ( 'NONE', #105, 1000.000000000000000 ) ;
#163 = PERSON_AND_ORGANIZATION ( #35, #170 ) ;
#164 = DIRECTION ( 'NONE',  ( -0.0000000000000000000, -1.000000000000000000, -0.0000000000000000000 ) ) ;
#165 = CC_DESIGN_PERSON_AND_ORGANIZATION_ASSIGNMENT ( #163, #109, ( #49 ) ) ;
#166 = DIRECTION ( 'NONE',  ( 0.0000000000000000000, 1.000000000000000000, 0.0000000000000000000 ) ) ;
#167 = CC_DESIGN_APPROVAL ( #75, ( #31 ) ) ;
#168 = LOCAL_TIME ( 11, 20, 41.00000000000000000, #127 ) ;
#169 = DIRECTION ( 'NONE',  ( 0.0000000000000000000, 0.0000000000000000000, 1.000000000000000000 ) ) ;
#170 = ORGANIZATION ( 'UNSPECIFIED', 'UNSPECIFIED', '' ) ;
#171 = APPROVAL_DATE_TIME ( #22, #75 ) ;
#172 = CC_DESIGN_DATE_AND_TIME_ASSIGNMENT ( #66, #98, ( #31 ) ) ;
#173 = CALENDAR_DATE ( 2017, 1, 2 ) ;
#174 = CIRCLE ( 'NONE', #107, 5.000000000000000000 ) ;
#175 = APPROVAL_PERSON_ORGANIZATION ( #145, #63, #123 ) ;
ENDSEC;
END-ISO-10303-21;
