ISO-10303-21;
HEADER;
FILE_DESCRIPTION (( 'STEP AP214' ),
    '1' );
FILE_NAME ('21326.step',
    '2022-07-14T19:21:18',
    ( '' ),
    ( '' ),
    'SwSTEP 2.0',
    'SolidWorks 2021',
    '' );
FILE_SCHEMA (( 'AUTOMOTIVE_DESIGN' ));
ENDSEC;

DATA;
#1 = UNCERTAINTY_MEASURE_WITH_UNIT (LENGTH_MEASURE( 1.000000000000000082E-05 ), #15, 'distance_accuracy_value', 'NONE');
#2 = EDGE_LOOP ( 'NONE', ( #70, #140 ) ) ;
#3 =( NAMED_UNIT ( * ) PLANE_ANGLE_UNIT ( ) SI_UNIT ( $, .RADIAN. ) );
#4 = CARTESIAN_POINT ( 'NONE',  ( 25.00000000000000000, 3.061616997868383043E-15, 3.000000000000000000 ) ) ;
#5 = PRODUCT_DEFINITION_FORMATION_WITH_SPECIFIED_SOURCE ( 'ANY', '', #137, .NOT_KNOWN. ) ;
#6 = PRODUCT_DEFINITION_SHAPE ( 'NONE', 'NONE',  #78 ) ;
#7 = ORIENTED_EDGE ( 'NONE', *, *, #62, .F. ) ;
#8 = DIRECTION ( 'NONE',  ( 0.000000000000000000, 0.000000000000000000, 1.000000000000000000 ) ) ;
#9 = ORIENTED_EDGE ( 'NONE', *, *, #67, .F. ) ;
#10 =( LENGTH_UNIT ( ) NAMED_UNIT ( * ) SI_UNIT ( .MILLI., .METRE. ) );
#11 = UNCERTAINTY_MEASURE_WITH_UNIT (LENGTH_MEASURE( 1.000000000000000082E-05 ), #10, 'distance_accuracy_value', 'NONE');
#12 = AXIS2_PLACEMENT_3D ( 'NONE', #122, #136, #112 ) ;
#13 = EDGE_CURVE ( 'NONE', #21, #91, #86, .T. ) ;
#14 = SURFACE_SIDE_STYLE ('',( #69 ) ) ;
#15 =( LENGTH_UNIT ( ) NAMED_UNIT ( * ) SI_UNIT ( .MILLI., .METRE. ) );
#16 = DIRECTION ( 'NONE',  ( 0.000000000000000000, 0.000000000000000000, 1.000000000000000000 ) ) ;
#17 = ORIENTED_EDGE ( 'NONE', *, *, #13, .F. ) ;
#18 = DIRECTION ( 'NONE',  ( -0.000000000000000000, -0.000000000000000000, -1.000000000000000000 ) ) ;
#19 = AXIS2_PLACEMENT_3D ( 'NONE', #101, #26, #68 ) ;
#20 = APPLICATION_CONTEXT ( 'automotive_design' ) ;
#21 = VERTEX_POINT ( 'NONE', #61 ) ;
#22 = AXIS2_PLACEMENT_3D ( 'NONE', #34, #63, #56 ) ;
#23 = CARTESIAN_POINT ( 'NONE',  ( -25.00000000000000000, 0.000000000000000000, 3.000000000000000000 ) ) ;
#24 = APPLICATION_PROTOCOL_DEFINITION ( 'draft international standard', 'automotive_design', 1998, #20 ) ;
#25 = FILL_AREA_STYLE ('',( #121 ) ) ;
#26 = DIRECTION ( 'NONE',  ( 0.000000000000000000, 0.000000000000000000, 1.000000000000000000 ) ) ;
#27 = FILL_AREA_STYLE_COLOUR ( '', #124 ) ;
#28 = STYLED_ITEM ( 'NONE', ( #39 ), #88 ) ;
#29 = CYLINDRICAL_SURFACE ( 'NONE', #105, 25.00000000000000000 ) ;
#30 = ADVANCED_FACE ( 'NONE', ( #119 ), #131, .F. ) ;
#31 = CARTESIAN_POINT ( 'NONE',  ( -25.00000000000000000, 0.000000000000000000, 0.000000000000000000 ) ) ;
#32 = FACE_OUTER_BOUND ( 'NONE', #2, .T. ) ;
#33 = STYLED_ITEM ( 'NONE', ( #37 ), #52 ) ;
#34 = CARTESIAN_POINT ( 'NONE',  ( 0.000000000000000000, 0.000000000000000000, 0.000000000000000000 ) ) ;
#35 = SURFACE_SIDE_STYLE ('',( #96 ) ) ;
#36 = ADVANCED_FACE ( 'NONE', ( #32 ), #117, .T. ) ;
#37 = PRESENTATION_STYLE_ASSIGNMENT (( #65 ) ) ;
#38 = FACE_OUTER_BOUND ( 'NONE', #139, .T. ) ;
#39 = PRESENTATION_STYLE_ASSIGNMENT (( #41 ) ) ;
#40 = CARTESIAN_POINT ( 'NONE',  ( 0.000000000000000000, 0.000000000000000000, 3.000000000000000000 ) ) ;
#41 = SURFACE_STYLE_USAGE ( .BOTH. , #14 ) ;
#42 = PRESENTATION_LAYER_ASSIGNMENT (  '', '', ( #33 ) ) ;
#43 =( NAMED_UNIT ( * ) SI_UNIT ( $, .STERADIAN. ) SOLID_ANGLE_UNIT ( ) );
#44 = CIRCLE ( 'NONE', #118, 25.00000000000000000 ) ;
#45 = PRODUCT_RELATED_PRODUCT_CATEGORY ( 'part', '', ( #137 ) ) ;
#46 = VERTEX_POINT ( 'NONE', #79 ) ;
#47 = ORIENTED_EDGE ( 'NONE', *, *, #138, .T. ) ;
#48 = DIRECTION ( 'NONE',  ( 0.000000000000000000, 0.000000000000000000, 1.000000000000000000 ) ) ;
#49 = MECHANICAL_DESIGN_GEOMETRIC_PRESENTATION_REPRESENTATION (  '', ( #28 ), #116 ) ;
#50 = AXIS2_PLACEMENT_3D ( 'NONE', #120, #48, #95 ) ;
#51 = PRODUCT_DEFINITION_CONTEXT ( 'detailed design', #20, 'design' ) ;
#52 = ADVANCED_BREP_SHAPE_REPRESENTATION ( '21326', ( #88, #50 ), #97 ) ;
#53 = DIRECTION ( 'NONE',  ( -0.000000000000000000, -0.000000000000000000, -1.000000000000000000 ) ) ;
#54 = VECTOR ( 'NONE', #18, 1000.000000000000000 ) ;
#55 = DIRECTION ( 'NONE',  ( 1.000000000000000000, 0.000000000000000000, 0.000000000000000000 ) ) ;
#56 = DIRECTION ( 'NONE',  ( 1.000000000000000000, 0.000000000000000000, -0.000000000000000000 ) ) ;
#57 =( NAMED_UNIT ( * ) PLANE_ANGLE_UNIT ( ) SI_UNIT ( $, .RADIAN. ) );
#58 = DIRECTION ( 'NONE',  ( -0.000000000000000000, -0.000000000000000000, -1.000000000000000000 ) ) ;
#59 = CARTESIAN_POINT ( 'NONE',  ( 0.000000000000000000, 0.000000000000000000, 0.000000000000000000 ) ) ;
#60 = PRESENTATION_LAYER_ASSIGNMENT (  '', '', ( #28 ) ) ;
#61 = CARTESIAN_POINT ( 'NONE',  ( -25.00000000000000000, 0.000000000000000000, 3.000000000000000000 ) ) ;
#62 = EDGE_CURVE ( 'NONE', #91, #46, #44, .T. ) ;
#63 = DIRECTION ( 'NONE',  ( 0.000000000000000000, 0.000000000000000000, 1.000000000000000000 ) ) ;
#64 = SHAPE_DEFINITION_REPRESENTATION ( #6, #52 ) ;
#65 = SURFACE_STYLE_USAGE ( .BOTH. , #35 ) ;
#66 = UNCERTAINTY_MEASURE_WITH_UNIT (LENGTH_MEASURE( 1.000000000000000082E-05 ), #123, 'distance_accuracy_value', 'NONE');
#67 = EDGE_CURVE ( 'NONE', #21, #102, #98, .T. ) ;
#68 = DIRECTION ( 'NONE',  ( 1.000000000000000000, 0.000000000000000000, 0.000000000000000000 ) ) ;
#69 = SURFACE_STYLE_FILL_AREA ( #71 ) ;
#70 = ORIENTED_EDGE ( 'NONE', *, *, #67, .T. ) ;
#71 = FILL_AREA_STYLE ('',( #27 ) ) ;
#72 = ADVANCED_FACE ( 'NONE', ( #38 ), #89, .T. ) ;
#73 = COLOUR_RGB ( '',0.7921568627450980005, 0.8196078431372548767, 0.9333333333333333481 ) ;
#74 = ORIENTED_EDGE ( 'NONE', *, *, #13, .T. ) ;
#75 = DIRECTION ( 'NONE',  ( 1.000000000000000000, 0.000000000000000000, -0.000000000000000000 ) ) ;
#76 = APPLICATION_PROTOCOL_DEFINITION ( 'draft international standard', 'automotive_design', 1998, #115 ) ;
#77 =( NAMED_UNIT ( * ) SI_UNIT ( $, .STERADIAN. ) SOLID_ANGLE_UNIT ( ) );
#78 = PRODUCT_DEFINITION ( 'UNKNOWN', '', #5, #51 ) ;
#79 = CARTESIAN_POINT ( 'NONE',  ( 25.00000000000000000, 3.061616997868383043E-15, 0.000000000000000000 ) ) ;
#80 = DIRECTION ( 'NONE',  ( 0.000000000000000000, 0.000000000000000000, 1.000000000000000000 ) ) ;
#81 = CARTESIAN_POINT ( 'NONE',  ( 25.00000000000000000, 3.061616997868383043E-15, 3.000000000000000000 ) ) ;
#82 = CIRCLE ( 'NONE', #109, 25.00000000000000000 ) ;
#83 = CARTESIAN_POINT ( 'NONE',  ( 0.000000000000000000, 0.000000000000000000, 3.000000000000000000 ) ) ;
#84 = VECTOR ( 'NONE', #58, 1000.000000000000000 ) ;
#85 = EDGE_LOOP ( 'NONE', ( #7, #113 ) ) ;
#86 = LINE ( 'NONE', #23, #84 ) ;
#87 = AXIS2_PLACEMENT_3D ( 'NONE', #59, #16, #111 ) ;
#88 = MANIFOLD_SOLID_BREP ( 'Boss-Extrude1', #126 ) ;
#89 = CYLINDRICAL_SURFACE ( 'NONE', #12, 25.00000000000000000 ) ;
#90 = DIRECTION ( 'NONE',  ( -1.000000000000000000, 0.000000000000000000, 0.000000000000000000 ) ) ;
#91 = VERTEX_POINT ( 'NONE', #31 ) ;
#92 = ADVANCED_FACE ( 'NONE', ( #100 ), #29, .T. ) ;
#93 =( NAMED_UNIT ( * ) PLANE_ANGLE_UNIT ( ) SI_UNIT ( $, .RADIAN. ) );
#94 = ORIENTED_EDGE ( 'NONE', *, *, #104, .F. ) ;
#95 = DIRECTION ( 'NONE',  ( 1.000000000000000000, 0.000000000000000000, 0.000000000000000000 ) ) ;
#96 = SURFACE_STYLE_FILL_AREA ( #25 ) ;
#97 =( GEOMETRIC_REPRESENTATION_CONTEXT ( 3 ) GLOBAL_UNCERTAINTY_ASSIGNED_CONTEXT ( ( #66 ) ) GLOBAL_UNIT_ASSIGNED_CONTEXT ( ( #123, #93, #43 ) ) REPRESENTATION_CONTEXT ( 'NONE', 'WORKASPACE' ) );
#98 = CIRCLE ( 'NONE', #19, 25.00000000000000000 ) ;
#99 = AXIS2_PLACEMENT_3D ( 'NONE', #107, #8, #75 ) ;
#100 = FACE_OUTER_BOUND ( 'NONE', #133, .T. ) ;
#101 = CARTESIAN_POINT ( 'NONE',  ( 0.000000000000000000, 0.000000000000000000, 3.000000000000000000 ) ) ;
#102 = VERTEX_POINT ( 'NONE', #4 ) ;
#103 = DIRECTION ( 'NONE',  ( 1.000000000000000000, 0.000000000000000000, 0.000000000000000000 ) ) ;
#104 = EDGE_CURVE ( 'NONE', #102, #21, #82, .T. ) ;
#105 = AXIS2_PLACEMENT_3D ( 'NONE', #83, #53, #90 ) ;
#106 =( GEOMETRIC_REPRESENTATION_CONTEXT ( 3 ) GLOBAL_UNCERTAINTY_ASSIGNED_CONTEXT ( ( #11 ) ) GLOBAL_UNIT_ASSIGNED_CONTEXT ( ( #10, #57, #77 ) ) REPRESENTATION_CONTEXT ( 'NONE', 'WORKASPACE' ) );
#107 = CARTESIAN_POINT ( 'NONE',  ( 0.000000000000000000, 0.000000000000000000, 3.000000000000000000 ) ) ;
#108 = ORIENTED_EDGE ( 'NONE', *, *, #135, .T. ) ;
#109 = AXIS2_PLACEMENT_3D ( 'NONE', #40, #80, #55 ) ;
#110 = MECHANICAL_DESIGN_GEOMETRIC_PRESENTATION_REPRESENTATION (  '', ( #33 ), #106 ) ;
#111 = DIRECTION ( 'NONE',  ( 1.000000000000000000, 0.000000000000000000, 0.000000000000000000 ) ) ;
#112 = DIRECTION ( 'NONE',  ( -1.000000000000000000, 0.000000000000000000, 0.000000000000000000 ) ) ;
#113 = ORIENTED_EDGE ( 'NONE', *, *, #138, .F. ) ;
#114 = DIRECTION ( 'NONE',  ( 0.000000000000000000, 0.000000000000000000, 1.000000000000000000 ) ) ;
#115 = APPLICATION_CONTEXT ( 'automotive_design' ) ;
#116 =( GEOMETRIC_REPRESENTATION_CONTEXT ( 3 ) GLOBAL_UNCERTAINTY_ASSIGNED_CONTEXT ( ( #1 ) ) GLOBAL_UNIT_ASSIGNED_CONTEXT ( ( #15, #3, #127 ) ) REPRESENTATION_CONTEXT ( 'NONE', 'WORKASPACE' ) );
#117 = PLANE ( 'NONE',  #99 ) ;
#118 = AXIS2_PLACEMENT_3D ( 'NONE', #132, #114, #103 ) ;
#119 = FACE_OUTER_BOUND ( 'NONE', #85, .T. ) ;
#120 = CARTESIAN_POINT ( 'NONE',  ( 0.000000000000000000, 0.000000000000000000, 0.000000000000000000 ) ) ;
#121 = FILL_AREA_STYLE_COLOUR ( '', #73 ) ;
#122 = CARTESIAN_POINT ( 'NONE',  ( 0.000000000000000000, 0.000000000000000000, 3.000000000000000000 ) ) ;
#123 =( LENGTH_UNIT ( ) NAMED_UNIT ( * ) SI_UNIT ( .MILLI., .METRE. ) );
#124 = COLOUR_RGB ( '',0.7921568627450980005, 0.8196078431372548767, 0.9333333333333333481 ) ;
#125 = LINE ( 'NONE', #81, #54 ) ;
#126 = CLOSED_SHELL ( 'NONE', ( #72, #92, #36, #30 ) ) ;
#127 =( NAMED_UNIT ( * ) SI_UNIT ( $, .STERADIAN. ) SOLID_ANGLE_UNIT ( ) );
#128 = ORIENTED_EDGE ( 'NONE', *, *, #62, .T. ) ;
#129 = PRODUCT_CONTEXT ( 'NONE', #115, 'mechanical' ) ;
#130 = CIRCLE ( 'NONE', #87, 25.00000000000000000 ) ;
#131 = PLANE ( 'NONE',  #22 ) ;
#132 = CARTESIAN_POINT ( 'NONE',  ( 0.000000000000000000, 0.000000000000000000, 0.000000000000000000 ) ) ;
#133 = EDGE_LOOP ( 'NONE', ( #134, #9, #74, #128 ) ) ;
#134 = ORIENTED_EDGE ( 'NONE', *, *, #135, .F. ) ;
#135 = EDGE_CURVE ( 'NONE', #102, #46, #125, .T. ) ;
#136 = DIRECTION ( 'NONE',  ( -0.000000000000000000, -0.000000000000000000, -1.000000000000000000 ) ) ;
#137 = PRODUCT ( '21326', '21326', '', ( #129 ) ) ;
#138 = EDGE_CURVE ( 'NONE', #46, #91, #130, .T. ) ;
#139 = EDGE_LOOP ( 'NONE', ( #94, #108, #47, #17 ) ) ;
#140 = ORIENTED_EDGE ( 'NONE', *, *, #104, .T. ) ;
ENDSEC;
END-ISO-10303-21;
