ISO-10303-21;
HEADER;
FILE_DESCRIPTION (( 'STEP AP203' ),
    '1' );
FILE_NAME ('Web Model 68740_83352.step',
    '2017-03-06T19:17:37',
    ( '' ),
    ( '' ),
    'SwSTEP 2.0',
    'SolidWorks 2016',
    '' );
FILE_SCHEMA (( 'CONFIG_CONTROL_DESIGN' ));
ENDSEC;

DATA;
#1 = FACE_OUTER_BOUND ( 'NONE', #17, .T. ) ;
#2 = DIRECTION ( 'NONE',  ( 1.000000000000000000, 0.0000000000000000000, 0.0000000000000000000 ) ) ;
#3 = CIRCLE ( 'NONE', #144, 25.00000000000000000 ) ;
#4 = CC_DESIGN_PERSON_AND_ORGANIZATION_ASSIGNMENT ( #37, #116, ( #170 ) ) ;
#5 = ADVANCED_FACE ( 'NONE', ( #131 ), #120, .T. ) ;
#6 = SECURITY_CLASSIFICATION_LEVEL ( 'unclassified' ) ;
#7 = DIRECTION ( 'NONE',  ( 1.000000000000000000, 0.0000000000000000000, 0.0000000000000000000 ) ) ;
#8 = CALENDAR_DATE ( 2017, 6, 3 ) ;
#9 = DIRECTION ( 'NONE',  ( 0.0000000000000000000, 0.0000000000000000000, 1.000000000000000000 ) ) ;
#10 = DIRECTION ( 'NONE',  ( -1.000000000000000000, -0.0000000000000000000, -0.0000000000000000000 ) ) ;
#11 = EDGE_LOOP ( 'NONE', ( #164, #126, #82, #32 ) ) ;
#12 = CC_DESIGN_DATE_AND_TIME_ASSIGNMENT ( #124, #127, ( #170 ) ) ;
#13 = CALENDAR_DATE ( 2017, 6, 3 ) ;
#14 = PERSON_AND_ORGANIZATION ( #57, #168 ) ;
#15 = CARTESIAN_POINT ( 'NONE',  ( 2.000000000000000000, 0.0000000000000000000, 25.00000000000000000 ) ) ;
#16 =( GEOMETRIC_REPRESENTATION_CONTEXT ( 3 ) GLOBAL_UNCERTAINTY_ASSIGNED_CONTEXT ( ( #143 ) ) GLOBAL_UNIT_ASSIGNED_CONTEXT ( ( #58, #83, #55 ) ) REPRESENTATION_CONTEXT ( 'NONE', 'WORKASPACE' ) );
#17 = EDGE_LOOP ( 'NONE', ( #33, #125 ) ) ;
#18 = FACE_OUTER_BOUND ( 'NONE', #96, .T. ) ;
#19 = DIRECTION ( 'NONE',  ( 0.0000000000000000000, 0.0000000000000000000, -1.000000000000000000 ) ) ;
#20 = DATE_AND_TIME ( #13, #171 ) ;
#21 = APPROVAL ( #166, 'UNSPECIFIED' ) ;
#22 = CARTESIAN_POINT ( 'NONE',  ( 0.0000000000000000000, 0.0000000000000000000, 0.0000000000000000000 ) ) ;
#23 = LOCAL_TIME ( 14, 17, 37.00000000000000000, #79 ) ;
#24 = AXIS2_PLACEMENT_3D ( 'NONE', #128, #65, #118 ) ;
#25 = LINE ( 'NONE', #163, #63 ) ;
#26 = PERSON_AND_ORGANIZATION ( #57, #168 ) ;
#27 = CC_DESIGN_APPROVAL ( #21, ( #170 ) ) ;
#28 = CARTESIAN_POINT ( 'NONE',  ( 0.0000000000000000000, 0.0000000000000000000, 0.0000000000000000000 ) ) ;
#29 = APPLICATION_CONTEXT ( 'configuration controlled 3d designs of mechanical parts and assemblies' ) ;
#30 = COORDINATED_UNIVERSAL_TIME_OFFSET ( 5, 0, .BEHIND. ) ;
#31 = APPROVAL_ROLE ( '' ) ;
#32 = ORIENTED_EDGE ( 'NONE', *, *, #94, .T. ) ;
#33 = ORIENTED_EDGE ( 'NONE', *, *, #94, .F. ) ;
#34 = PRODUCT_DEFINITION_SHAPE ( 'NONE', 'NONE',  #77 ) ;
#35 = DIRECTION ( 'NONE',  ( 1.000000000000000000, 0.0000000000000000000, 0.0000000000000000000 ) ) ;
#36 = CC_DESIGN_SECURITY_CLASSIFICATION ( #170, ( #114 ) ) ;
#37 = PERSON_AND_ORGANIZATION ( #57, #168 ) ;
#38 = ORIENTED_EDGE ( 'NONE', *, *, #88, .T. ) ;
#39 = CIRCLE ( 'NONE', #153, 25.00000000000000000 ) ;
#40 = CARTESIAN_POINT ( 'NONE',  ( 2.000000000000000000, 3.061616997868383000E-015, -25.00000000000000000 ) ) ;
#41 = DIRECTION ( 'NONE',  ( 1.000000000000000000, 0.0000000000000000000, 0.0000000000000000000 ) ) ;
#42 = COORDINATED_UNIVERSAL_TIME_OFFSET ( 5, 0, .BEHIND. ) ;
#43 = PLANE ( 'NONE',  #133 ) ;
#44 = PRODUCT_RELATED_PRODUCT_CATEGORY ( 'detail', '', ( #89 ) ) ;
#45 = DIRECTION ( 'NONE',  ( 0.0000000000000000000, 0.0000000000000000000, -1.000000000000000000 ) ) ;
#46 = APPROVAL_DATE_TIME ( #157, #21 ) ;
#47 = COORDINATED_UNIVERSAL_TIME_OFFSET ( 5, 0, .BEHIND. ) ;
#48 = ADVANCED_BREP_SHAPE_REPRESENTATION ( 'Web Model 68740_83352', ( #98, #59 ), #16 ) ;
#49 = CALENDAR_DATE ( 2017, 6, 3 ) ;
#50 = EDGE_CURVE ( 'NONE', #56, #139, #147, .T. ) ;
#51 = CARTESIAN_POINT ( 'NONE',  ( 0.0000000000000000000, 0.0000000000000000000, 0.0000000000000000000 ) ) ;
#52 = LOCAL_TIME ( 14, 17, 37.00000000000000000, #30 ) ;
#53 = DIRECTION ( 'NONE',  ( 0.0000000000000000000, 0.0000000000000000000, -1.000000000000000000 ) ) ;
#54 = ADVANCED_FACE ( 'NONE', ( #1 ), #43, .F. ) ;
#55 =( NAMED_UNIT ( * ) SI_UNIT ( $, .STERADIAN. ) SOLID_ANGLE_UNIT ( ) );
#56 = VERTEX_POINT ( 'NONE', #61 ) ;
#57 = PERSON ( 'UNSPECIFIED', 'UNSPECIFIED', 'UNSPECIFIED', ('UNSPECIFIED'), ('UNSPECIFIED'), ('UNSPECIFIED') ) ;
#58 =( LENGTH_UNIT ( ) NAMED_UNIT ( * ) SI_UNIT ( .MILLI., .METRE. ) );
#59 = AXIS2_PLACEMENT_3D ( 'NONE', #28, #112, #41 ) ;
#60 = DATE_AND_TIME ( #107, #162 ) ;
#61 = CARTESIAN_POINT ( 'NONE',  ( 2.000000000000000000, 3.061616997868383000E-015, -25.00000000000000000 ) ) ;
#62 = EDGE_CURVE ( 'NONE', #56, #64, #73, .T. ) ;
#63 = VECTOR ( 'NONE', #110, 1000.000000000000000 ) ;
#64 = VERTEX_POINT ( 'NONE', #15 ) ;
#65 = DIRECTION ( 'NONE',  ( 1.000000000000000000, 0.0000000000000000000, 0.0000000000000000000 ) ) ;
#66 = CYLINDRICAL_SURFACE ( 'NONE', #173, 25.00000000000000000 ) ;
#67 = CC_DESIGN_PERSON_AND_ORGANIZATION_ASSIGNMENT ( #26, #117, ( #89 ) ) ;
#68 = APPROVAL_DATE_TIME ( #111, #84 ) ;
#69 = EDGE_CURVE ( 'NONE', #139, #140, #3, .T. ) ;
#70 = ORIENTED_EDGE ( 'NONE', *, *, #80, .F. ) ;
#71 = DIRECTION ( 'NONE',  ( -1.000000000000000000, -0.0000000000000000000, -0.0000000000000000000 ) ) ;
#72 = CLOSED_SHELL ( 'NONE', ( #74, #5, #175, #54 ) ) ;
#73 = CIRCLE ( 'NONE', #103, 25.00000000000000000 ) ;
#74 = ADVANCED_FACE ( 'NONE', ( #174 ), #66, .T. ) ;
#75 = DIRECTION ( 'NONE',  ( 0.0000000000000000000, 0.0000000000000000000, 1.000000000000000000 ) ) ;
#76 = CARTESIAN_POINT ( 'NONE',  ( 2.000000000000000000, 0.0000000000000000000, 0.0000000000000000000 ) ) ;
#77 = PRODUCT_DEFINITION ( 'UNKNOWN', '', #114, #150 ) ;
#78 = APPROVAL_PERSON_ORGANIZATION ( #113, #129, #106 ) ;
#79 = COORDINATED_UNIVERSAL_TIME_OFFSET ( 5, 0, .BEHIND. ) ;
#80 = EDGE_CURVE ( 'NONE', #64, #140, #25, .T. ) ;
#81 = EDGE_LOOP ( 'NONE', ( #87, #109, #158, #70 ) ) ;
#82 = ORIENTED_EDGE ( 'NONE', *, *, #80, .T. ) ;
#83 =( NAMED_UNIT ( * ) PLANE_ANGLE_UNIT ( ) SI_UNIT ( $, .RADIAN. ) );
#84 = APPROVAL ( #134, 'UNSPECIFIED' ) ;
#85 = PERSON_AND_ORGANIZATION ( #57, #168 ) ;
#86 = CALENDAR_DATE ( 2017, 6, 3 ) ;
#87 = ORIENTED_EDGE ( 'NONE', *, *, #62, .F. ) ;
#88 = EDGE_CURVE ( 'NONE', #64, #56, #95, .T. ) ;
#89 = PRODUCT ( 'Web Model 68740_83352', 'Web Model 68740_83352', '', ( #149 ) ) ;
#90 = SHAPE_DEFINITION_REPRESENTATION ( #34, #48 ) ;
#91 = PERSON_AND_ORGANIZATION ( #57, #168 ) ;
#92 = CC_DESIGN_APPROVAL ( #84, ( #77 ) ) ;
#93 = APPROVAL_STATUS ( 'not_yet_approved' ) ;
#94 = EDGE_CURVE ( 'NONE', #140, #139, #39, .T. ) ;
#95 = CIRCLE ( 'NONE', #160, 25.00000000000000000 ) ;
#96 = EDGE_LOOP ( 'NONE', ( #38, #104 ) ) ;
#97 = APPROVAL_PERSON_ORGANIZATION ( #152, #84, #151 ) ;
#98 = MANIFOLD_SOLID_BREP ( 'Extrude1', #72 ) ;
#99 = PERSON_AND_ORGANIZATION_ROLE ( 'design_supplier' ) ;
#100 = VECTOR ( 'NONE', #123, 1000.000000000000000 ) ;
#101 = CC_DESIGN_PERSON_AND_ORGANIZATION_ASSIGNMENT ( #91, #119, ( #77 ) ) ;
#102 = PERSON_AND_ORGANIZATION ( #57, #168 ) ;
#103 = AXIS2_PLACEMENT_3D ( 'NONE', #76, #148, #53 ) ;
#104 = ORIENTED_EDGE ( 'NONE', *, *, #62, .T. ) ;
#105 = PERSON_AND_ORGANIZATION_ROLE ( 'creator' ) ;
#106 = APPROVAL_ROLE ( '' ) ;
#107 = CALENDAR_DATE ( 2017, 6, 3 ) ;
#108 = CC_DESIGN_DATE_AND_TIME_ASSIGNMENT ( #20, #115, ( #77 ) ) ;
#109 = ORIENTED_EDGE ( 'NONE', *, *, #50, .T. ) ;
#110 = DIRECTION ( 'NONE',  ( -1.000000000000000000, -0.0000000000000000000, -0.0000000000000000000 ) ) ;
#111 = DATE_AND_TIME ( #49, #122 ) ;
#112 = DIRECTION ( 'NONE',  ( 0.0000000000000000000, 0.0000000000000000000, 1.000000000000000000 ) ) ;
#113 = PERSON_AND_ORGANIZATION ( #57, #168 ) ;
#114 = PRODUCT_DEFINITION_FORMATION_WITH_SPECIFIED_SOURCE ( 'ANY', '', #89, .NOT_KNOWN. ) ;
#115 = DATE_TIME_ROLE ( 'creation_date' ) ;
#116 = PERSON_AND_ORGANIZATION_ROLE ( 'classification_officer' ) ;
#117 = PERSON_AND_ORGANIZATION_ROLE ( 'design_owner' ) ;
#118 = DIRECTION ( 'NONE',  ( 0.0000000000000000000, 0.0000000000000000000, -1.000000000000000000 ) ) ;
#119 = PERSON_AND_ORGANIZATION_ROLE ( 'creator' ) ;
#120 = CYLINDRICAL_SURFACE ( 'NONE', #121, 25.00000000000000000 ) ;
#121 = AXIS2_PLACEMENT_3D ( 'NONE', #165, #10, #75 ) ;
#122 = LOCAL_TIME ( 14, 17, 37.00000000000000000, #47 ) ;
#123 = DIRECTION ( 'NONE',  ( -1.000000000000000000, -0.0000000000000000000, -0.0000000000000000000 ) ) ;
#124 = DATE_AND_TIME ( #8, #52 ) ;
#125 = ORIENTED_EDGE ( 'NONE', *, *, #69, .F. ) ;
#126 = ORIENTED_EDGE ( 'NONE', *, *, #88, .F. ) ;
#127 = DATE_TIME_ROLE ( 'classification_date' ) ;
#128 = CARTESIAN_POINT ( 'NONE',  ( 2.000000000000000000, 0.0000000000000000000, 0.0000000000000000000 ) ) ;
#129 = APPROVAL ( #93, 'UNSPECIFIED' ) ;
#130 = PLANE ( 'NONE',  #24 ) ;
#131 = FACE_OUTER_BOUND ( 'NONE', #11, .T. ) ;
#132 = DIRECTION ( 'NONE',  ( 0.0000000000000000000, 0.0000000000000000000, -1.000000000000000000 ) ) ;
#133 = AXIS2_PLACEMENT_3D ( 'NONE', #22, #7, #172 ) ;
#134 = APPROVAL_STATUS ( 'not_yet_approved' ) ;
#135 = COORDINATED_UNIVERSAL_TIME_OFFSET ( 5, 0, .BEHIND. ) ;
#136 = APPLICATION_PROTOCOL_DEFINITION ( 'international standard', 'config_control_design', 1994, #137 ) ;
#137 = APPLICATION_CONTEXT ( 'configuration controlled 3d designs of mechanical parts and assemblies' ) ;
#138 = CARTESIAN_POINT ( 'NONE',  ( 2.000000000000000000, 0.0000000000000000000, 0.0000000000000000000 ) ) ;
#139 = VERTEX_POINT ( 'NONE', #167 ) ;
#140 = VERTEX_POINT ( 'NONE', #161 ) ;
#141 = APPLICATION_PROTOCOL_DEFINITION ( 'international standard', 'config_control_design', 1994, #29 ) ;
#142 = CC_DESIGN_APPROVAL ( #129, ( #114 ) ) ;
#143 = UNCERTAINTY_MEASURE_WITH_UNIT (LENGTH_MEASURE( 1.000000000000000100E-005 ), #58, 'distance_accuracy_value', 'NONE');
#144 = AXIS2_PLACEMENT_3D ( 'NONE', #51, #2, #45 ) ;
#145 = APPROVAL_DATE_TIME ( #60, #129 ) ;
#146 = CC_DESIGN_PERSON_AND_ORGANIZATION_ASSIGNMENT ( #85, #105, ( #114 ) ) ;
#147 = LINE ( 'NONE', #40, #100 ) ;
#148 = DIRECTION ( 'NONE',  ( 1.000000000000000000, 0.0000000000000000000, 0.0000000000000000000 ) ) ;
#149 = MECHANICAL_CONTEXT ( 'NONE', #29, 'mechanical' ) ;
#150 = DESIGN_CONTEXT ( 'detailed design', #137, 'design' ) ;
#151 = APPROVAL_ROLE ( '' ) ;
#152 = PERSON_AND_ORGANIZATION ( #57, #168 ) ;
#153 = AXIS2_PLACEMENT_3D ( 'NONE', #169, #35, #19 ) ;
#154 = DIRECTION ( 'NONE',  ( 1.000000000000000000, 0.0000000000000000000, 0.0000000000000000000 ) ) ;
#155 = APPROVAL_PERSON_ORGANIZATION ( #102, #21, #31 ) ;
#156 = CARTESIAN_POINT ( 'NONE',  ( 2.000000000000000000, 0.0000000000000000000, 0.0000000000000000000 ) ) ;
#157 = DATE_AND_TIME ( #86, #23 ) ;
#158 = ORIENTED_EDGE ( 'NONE', *, *, #69, .T. ) ;
#159 = CC_DESIGN_PERSON_AND_ORGANIZATION_ASSIGNMENT ( #14, #99, ( #114 ) ) ;
#160 = AXIS2_PLACEMENT_3D ( 'NONE', #138, #154, #132 ) ;
#161 = CARTESIAN_POINT ( 'NONE',  ( 0.0000000000000000000, 0.0000000000000000000, 25.00000000000000000 ) ) ;
#162 = LOCAL_TIME ( 14, 17, 37.00000000000000000, #135 ) ;
#163 = CARTESIAN_POINT ( 'NONE',  ( 2.000000000000000000, 0.0000000000000000000, 25.00000000000000000 ) ) ;
#164 = ORIENTED_EDGE ( 'NONE', *, *, #50, .F. ) ;
#165 = CARTESIAN_POINT ( 'NONE',  ( 2.000000000000000000, 0.0000000000000000000, 0.0000000000000000000 ) ) ;
#166 = APPROVAL_STATUS ( 'not_yet_approved' ) ;
#167 = CARTESIAN_POINT ( 'NONE',  ( 0.0000000000000000000, 3.061616997868383000E-015, -25.00000000000000000 ) ) ;
#168 = ORGANIZATION ( 'UNSPECIFIED', 'UNSPECIFIED', '' ) ;
#169 = CARTESIAN_POINT ( 'NONE',  ( 0.0000000000000000000, 0.0000000000000000000, 0.0000000000000000000 ) ) ;
#170 = SECURITY_CLASSIFICATION ( '', '', #6 ) ;
#171 = LOCAL_TIME ( 14, 17, 37.00000000000000000, #42 ) ;
#172 = DIRECTION ( 'NONE',  ( 0.0000000000000000000, 0.0000000000000000000, -1.000000000000000000 ) ) ;
#173 = AXIS2_PLACEMENT_3D ( 'NONE', #156, #71, #9 ) ;
#174 = FACE_OUTER_BOUND ( 'NONE', #81, .T. ) ;
#175 = ADVANCED_FACE ( 'NONE', ( #18 ), #130, .T. ) ;
ENDSEC;
END-ISO-10303-21;
