ISO-10303-21;
HEADER;
FILE_DESCRIPTION (( 'STEP AP203' ),
    '1' );
FILE_NAME ('Web Model 45852_48399.step',
    '2017-03-01T18:13:21',
    ( '' ),
    ( '' ),
    'SwSTEP 2.0',
    'SolidWorks 2016',
    '' );
FILE_SCHEMA (( 'CONFIG_CONTROL_DESIGN' ));
ENDSEC;

DATA;
#1 = APPLICATION_PROTOCOL_DEFINITION ( 'international standard', 'config_control_design', 1994, #165 ) ;
#2 = DIRECTION ( 'NONE',  ( -1.000000000000000000, 0.0000000000000000000, 0.0000000000000000000 ) ) ;
#3 = CARTESIAN_POINT ( 'NONE',  ( 12.50000000000000000, 1.530808498934191500E-015, 3.000000000000000000 ) ) ;
#4 = PERSON_AND_ORGANIZATION_ROLE ( 'design_owner' ) ;
#5 = COORDINATED_UNIVERSAL_TIME_OFFSET ( 5, 0, .BEHIND. ) ;
#6 = ADVANCED_FACE ( 'NONE', ( #86 ), #11, .F. ) ;
#7 = APPROVAL ( #167, 'UNSPECIFIED' ) ;
#8 = PLANE ( 'NONE',  #54 ) ;
#9 = DATE_TIME_ROLE ( 'classification_date' ) ;
#10 = DIRECTION ( 'NONE',  ( 0.0000000000000000000, 0.0000000000000000000, 1.000000000000000000 ) ) ;
#11 = PLANE ( 'NONE',  #69 ) ;
#12 = CARTESIAN_POINT ( 'NONE',  ( -12.50000000000000000, 0.0000000000000000000, 3.000000000000000000 ) ) ;
#13 =( LENGTH_UNIT ( ) NAMED_UNIT ( * ) SI_UNIT ( .MILLI., .METRE. ) );
#14 = EDGE_CURVE ( 'NONE', #25, #48, #158, .T. ) ;
#15 = ORIENTED_EDGE ( 'NONE', *, *, #139, .T. ) ;
#16 = LINE ( 'NONE', #12, #170 ) ;
#17 = CC_DESIGN_APPROVAL ( #7, ( #173 ) ) ;
#18 = DIRECTION ( 'NONE',  ( 1.000000000000000000, 0.0000000000000000000, 0.0000000000000000000 ) ) ;
#19 = APPROVAL_ROLE ( '' ) ;
#20 = CALENDAR_DATE ( 2017, 1, 3 ) ;
#21 = CARTESIAN_POINT ( 'NONE',  ( 0.0000000000000000000, 0.0000000000000000000, 3.000000000000000000 ) ) ;
#22 = ORGANIZATION ( 'UNSPECIFIED', 'UNSPECIFIED', '' ) ;
#23 = CARTESIAN_POINT ( 'NONE',  ( 0.0000000000000000000, 0.0000000000000000000, 0.0000000000000000000 ) ) ;
#24 = EDGE_CURVE ( 'NONE', #41, #76, #77, .T. ) ;
#25 = VERTEX_POINT ( 'NONE', #55 ) ;
#26 = APPROVAL_ROLE ( '' ) ;
#27 = CC_DESIGN_PERSON_AND_ORGANIZATION_ASSIGNMENT ( #53, #72, ( #173 ) ) ;
#28 = DIRECTION ( 'NONE',  ( 0.0000000000000000000, 0.0000000000000000000, 1.000000000000000000 ) ) ;
#29 = DIRECTION ( 'NONE',  ( 0.0000000000000000000, 0.0000000000000000000, 1.000000000000000000 ) ) ;
#30 = DIRECTION ( 'NONE',  ( 1.000000000000000000, 0.0000000000000000000, -0.0000000000000000000 ) ) ;
#31 = DIRECTION ( 'NONE',  ( 1.000000000000000000, 0.0000000000000000000, -0.0000000000000000000 ) ) ;
#32 = EDGE_LOOP ( 'NONE', ( #94, #80 ) ) ;
#33 = LOCAL_TIME ( 13, 13, 21.00000000000000000, #128 ) ;
#34 = EDGE_CURVE ( 'NONE', #41, #25, #106, .T. ) ;
#35 = CC_DESIGN_PERSON_AND_ORGANIZATION_ASSIGNMENT ( #107, #144, ( #173 ) ) ;
#36 = VECTOR ( 'NONE', #84, 1000.000000000000000 ) ;
#37 = CALENDAR_DATE ( 2017, 1, 3 ) ;
#38 = DIRECTION ( 'NONE',  ( 1.000000000000000000, 0.0000000000000000000, 0.0000000000000000000 ) ) ;
#39 = CIRCLE ( 'NONE', #124, 12.50000000000000000 ) ;
#40 = ORIENTED_EDGE ( 'NONE', *, *, #24, .F. ) ;
#41 = VERTEX_POINT ( 'NONE', #3 ) ;
#42 = EDGE_CURVE ( 'NONE', #76, #41, #47, .T. ) ;
#43 = SECURITY_CLASSIFICATION ( '', '', #132 ) ;
#44 = DATE_AND_TIME ( #37, #135 ) ;
#45 = APPROVAL_ROLE ( '' ) ;
#46 = FACE_OUTER_BOUND ( 'NONE', #113, .T. ) ;
#47 = CIRCLE ( 'NONE', #62, 12.50000000000000000 ) ;
#48 = VERTEX_POINT ( 'NONE', #151 ) ;
#49 = APPROVAL_PERSON_ORGANIZATION ( #172, #140, #19 ) ;
#50 = ADVANCED_BREP_SHAPE_REPRESENTATION ( 'Web Model 45852_48399', ( #126, #111 ), #65 ) ;
#51 = CC_DESIGN_PERSON_AND_ORGANIZATION_ASSIGNMENT ( #119, #118, ( #43 ) ) ;
#52 = CARTESIAN_POINT ( 'NONE',  ( 0.0000000000000000000, 0.0000000000000000000, 3.000000000000000000 ) ) ;
#53 = PERSON_AND_ORGANIZATION ( #157, #22 ) ;
#54 = AXIS2_PLACEMENT_3D ( 'NONE', #115, #29, #30 ) ;
#55 = CARTESIAN_POINT ( 'NONE',  ( 12.50000000000000000, 1.530808498934191500E-015, 0.0000000000000000000 ) ) ;
#56 = APPROVAL_STATUS ( 'not_yet_approved' ) ;
#57 = MECHANICAL_CONTEXT ( 'NONE', #165, 'mechanical' ) ;
#58 = ADVANCED_FACE ( 'NONE', ( #46 ), #149, .T. ) ;
#59 = AXIS2_PLACEMENT_3D ( 'NONE', #148, #67, #18 ) ;
#60 = CC_DESIGN_DATE_AND_TIME_ASSIGNMENT ( #71, #9, ( #43 ) ) ;
#61 = DATE_AND_TIME ( #129, #33 ) ;
#62 = AXIS2_PLACEMENT_3D ( 'NONE', #52, #10, #38 ) ;
#63 = APPROVAL_DATE_TIME ( #61, #7 ) ;
#64 = CALENDAR_DATE ( 2017, 1, 3 ) ;
#65 =( GEOMETRIC_REPRESENTATION_CONTEXT ( 3 ) GLOBAL_UNCERTAINTY_ASSIGNED_CONTEXT ( ( #87 ) ) GLOBAL_UNIT_ASSIGNED_CONTEXT ( ( #13, #108, #168 ) ) REPRESENTATION_CONTEXT ( 'NONE', 'WORKASPACE' ) );
#66 = DIRECTION ( 'NONE',  ( -0.0000000000000000000, -0.0000000000000000000, -1.000000000000000000 ) ) ;
#67 = DIRECTION ( 'NONE',  ( 0.0000000000000000000, 0.0000000000000000000, 1.000000000000000000 ) ) ;
#68 = LOCAL_TIME ( 13, 13, 21.00000000000000000, #117 ) ;
#69 = AXIS2_PLACEMENT_3D ( 'NONE', #161, #134, #31 ) ;
#70 = APPROVAL ( #96, 'UNSPECIFIED' ) ;
#71 = DATE_AND_TIME ( #20, #90 ) ;
#72 = PERSON_AND_ORGANIZATION_ROLE ( 'creator' ) ;
#73 = ORIENTED_EDGE ( 'NONE', *, *, #42, .F. ) ;
#74 = AXIS2_PLACEMENT_3D ( 'NONE', #116, #66, #138 ) ;
#75 = DIRECTION ( 'NONE',  ( 0.0000000000000000000, 0.0000000000000000000, 1.000000000000000000 ) ) ;
#76 = VERTEX_POINT ( 'NONE', #136 ) ;
#77 = CIRCLE ( 'NONE', #79, 12.50000000000000000 ) ;
#78 = DIRECTION ( 'NONE',  ( 1.000000000000000000, 0.0000000000000000000, 0.0000000000000000000 ) ) ;
#79 = AXIS2_PLACEMENT_3D ( 'NONE', #21, #28, #78 ) ;
#80 = ORIENTED_EDGE ( 'NONE', *, *, #14, .F. ) ;
#81 = DATE_AND_TIME ( #64, #160 ) ;
#82 = DATE_AND_TIME ( #97, #68 ) ;
#83 = CC_DESIGN_APPROVAL ( #70, ( #43 ) ) ;
#84 = DIRECTION ( 'NONE',  ( -0.0000000000000000000, -0.0000000000000000000, -1.000000000000000000 ) ) ;
#85 = PERSON_AND_ORGANIZATION ( #157, #22 ) ;
#86 = FACE_OUTER_BOUND ( 'NONE', #32, .T. ) ;
#87 = UNCERTAINTY_MEASURE_WITH_UNIT (LENGTH_MEASURE( 1.000000000000000100E-005 ), #13, 'distance_accuracy_value', 'NONE');
#88 = DATE_TIME_ROLE ( 'creation_date' ) ;
#89 = PERSON_AND_ORGANIZATION_ROLE ( 'creator' ) ;
#90 = LOCAL_TIME ( 13, 13, 21.00000000000000000, #114 ) ;
#91 = ORIENTED_EDGE ( 'NONE', *, *, #146, .T. ) ;
#92 = DESIGN_CONTEXT ( 'detailed design', #153, 'design' ) ;
#93 = CC_DESIGN_SECURITY_CLASSIFICATION ( #43, ( #173 ) ) ;
#94 = ORIENTED_EDGE ( 'NONE', *, *, #139, .F. ) ;
#95 = FACE_OUTER_BOUND ( 'NONE', #100, .T. ) ;
#96 = APPROVAL_STATUS ( 'not_yet_approved' ) ;
#97 = CALENDAR_DATE ( 2017, 1, 3 ) ;
#98 = CARTESIAN_POINT ( 'NONE',  ( 0.0000000000000000000, 0.0000000000000000000, 0.0000000000000000000 ) ) ;
#99 = ORIENTED_EDGE ( 'NONE', *, *, #146, .F. ) ;
#100 = EDGE_LOOP ( 'NONE', ( #105, #145 ) ) ;
#101 = PRODUCT_RELATED_PRODUCT_CATEGORY ( 'detail', '', ( #150 ) ) ;
#102 = CYLINDRICAL_SURFACE ( 'NONE', #74, 12.50000000000000000 ) ;
#103 = DIRECTION ( 'NONE',  ( 1.000000000000000000, 0.0000000000000000000, 0.0000000000000000000 ) ) ;
#104 = PERSON_AND_ORGANIZATION ( #157, #22 ) ;
#105 = ORIENTED_EDGE ( 'NONE', *, *, #42, .T. ) ;
#106 = LINE ( 'NONE', #143, #36 ) ;
#107 = PERSON_AND_ORGANIZATION ( #157, #22 ) ;
#108 =( NAMED_UNIT ( * ) PLANE_ANGLE_UNIT ( ) SI_UNIT ( $, .RADIAN. ) );
#109 = ORIENTED_EDGE ( 'NONE', *, *, #34, .T. ) ;
#110 = AXIS2_PLACEMENT_3D ( 'NONE', #122, #163, #2 ) ;
#111 = AXIS2_PLACEMENT_3D ( 'NONE', #23, #75, #103 ) ;
#112 = APPROVAL_DATE_TIME ( #44, #70 ) ;
#113 = EDGE_LOOP ( 'NONE', ( #175, #73, #91, #15 ) ) ;
#114 = COORDINATED_UNIVERSAL_TIME_OFFSET ( 5, 0, .BEHIND. ) ;
#115 = CARTESIAN_POINT ( 'NONE',  ( 0.0000000000000000000, 0.0000000000000000000, 3.000000000000000000 ) ) ;
#116 = CARTESIAN_POINT ( 'NONE',  ( 0.0000000000000000000, 0.0000000000000000000, 3.000000000000000000 ) ) ;
#117 = COORDINATED_UNIVERSAL_TIME_OFFSET ( 5, 0, .BEHIND. ) ;
#118 = PERSON_AND_ORGANIZATION_ROLE ( 'classification_officer' ) ;
#119 = PERSON_AND_ORGANIZATION ( #157, #22 ) ;
#120 = APPROVAL_PERSON_ORGANIZATION ( #141, #7, #45 ) ;
#121 = FACE_OUTER_BOUND ( 'NONE', #131, .T. ) ;
#122 = CARTESIAN_POINT ( 'NONE',  ( 0.0000000000000000000, 0.0000000000000000000, 3.000000000000000000 ) ) ;
#123 = SHAPE_DEFINITION_REPRESENTATION ( #137, #50 ) ;
#124 = AXIS2_PLACEMENT_3D ( 'NONE', #98, #162, #174 ) ;
#125 = CC_DESIGN_PERSON_AND_ORGANIZATION_ASSIGNMENT ( #152, #4, ( #150 ) ) ;
#126 = MANIFOLD_SOLID_BREP ( 'Extrude1', #159 ) ;
#127 = DIRECTION ( 'NONE',  ( -0.0000000000000000000, -0.0000000000000000000, -1.000000000000000000 ) ) ;
#128 = COORDINATED_UNIVERSAL_TIME_OFFSET ( 5, 0, .BEHIND. ) ;
#129 = CALENDAR_DATE ( 2017, 1, 3 ) ;
#130 = ORIENTED_EDGE ( 'NONE', *, *, #14, .T. ) ;
#131 = EDGE_LOOP ( 'NONE', ( #40, #109, #130, #99 ) ) ;
#132 = SECURITY_CLASSIFICATION_LEVEL ( 'unclassified' ) ;
#133 = PRODUCT_DEFINITION ( 'UNKNOWN', '', #173, #92 ) ;
#134 = DIRECTION ( 'NONE',  ( 0.0000000000000000000, 0.0000000000000000000, 1.000000000000000000 ) ) ;
#135 = LOCAL_TIME ( 13, 13, 21.00000000000000000, #5 ) ;
#136 = CARTESIAN_POINT ( 'NONE',  ( -12.50000000000000000, 0.0000000000000000000, 3.000000000000000000 ) ) ;
#137 = PRODUCT_DEFINITION_SHAPE ( 'NONE', 'NONE',  #133 ) ;
#138 = DIRECTION ( 'NONE',  ( -1.000000000000000000, 0.0000000000000000000, 0.0000000000000000000 ) ) ;
#139 = EDGE_CURVE ( 'NONE', #48, #25, #39, .T. ) ;
#140 = APPROVAL ( #56, 'UNSPECIFIED' ) ;
#141 = PERSON_AND_ORGANIZATION ( #157, #22 ) ;
#142 = APPROVAL_DATE_TIME ( #82, #140 ) ;
#143 = CARTESIAN_POINT ( 'NONE',  ( 12.50000000000000000, 1.530808498934191500E-015, 3.000000000000000000 ) ) ;
#144 = PERSON_AND_ORGANIZATION_ROLE ( 'design_supplier' ) ;
#145 = ORIENTED_EDGE ( 'NONE', *, *, #24, .T. ) ;
#146 = EDGE_CURVE ( 'NONE', #76, #48, #16, .T. ) ;
#147 = CC_DESIGN_APPROVAL ( #140, ( #133 ) ) ;
#148 = CARTESIAN_POINT ( 'NONE',  ( 0.0000000000000000000, 0.0000000000000000000, 0.0000000000000000000 ) ) ;
#149 = CYLINDRICAL_SURFACE ( 'NONE', #110, 12.50000000000000000 ) ;
#150 = PRODUCT ( 'Web Model 45852_48399', 'Web Model 45852_48399', '', ( #57 ) ) ;
#151 = CARTESIAN_POINT ( 'NONE',  ( -12.50000000000000000, 0.0000000000000000000, 0.0000000000000000000 ) ) ;
#152 = PERSON_AND_ORGANIZATION ( #157, #22 ) ;
#153 = APPLICATION_CONTEXT ( 'configuration controlled 3d designs of mechanical parts and assemblies' ) ;
#154 = CC_DESIGN_PERSON_AND_ORGANIZATION_ASSIGNMENT ( #85, #89, ( #133 ) ) ;
#155 = ADVANCED_FACE ( 'NONE', ( #95 ), #8, .T. ) ;
#156 = COORDINATED_UNIVERSAL_TIME_OFFSET ( 5, 0, .BEHIND. ) ;
#157 = PERSON ( 'UNSPECIFIED', 'UNSPECIFIED', 'UNSPECIFIED', ('UNSPECIFIED'), ('UNSPECIFIED'), ('UNSPECIFIED') ) ;
#158 = CIRCLE ( 'NONE', #59, 12.50000000000000000 ) ;
#159 = CLOSED_SHELL ( 'NONE', ( #169, #58, #155, #6 ) ) ;
#160 = LOCAL_TIME ( 13, 13, 21.00000000000000000, #156 ) ;
#161 = CARTESIAN_POINT ( 'NONE',  ( 0.0000000000000000000, 0.0000000000000000000, 0.0000000000000000000 ) ) ;
#162 = DIRECTION ( 'NONE',  ( 0.0000000000000000000, 0.0000000000000000000, 1.000000000000000000 ) ) ;
#163 = DIRECTION ( 'NONE',  ( -0.0000000000000000000, -0.0000000000000000000, -1.000000000000000000 ) ) ;
#164 = CC_DESIGN_DATE_AND_TIME_ASSIGNMENT ( #81, #88, ( #133 ) ) ;
#165 = APPLICATION_CONTEXT ( 'configuration controlled 3d designs of mechanical parts and assemblies' ) ;
#166 = APPLICATION_PROTOCOL_DEFINITION ( 'international standard', 'config_control_design', 1994, #153 ) ;
#167 = APPROVAL_STATUS ( 'not_yet_approved' ) ;
#168 =( NAMED_UNIT ( * ) SI_UNIT ( $, .STERADIAN. ) SOLID_ANGLE_UNIT ( ) );
#169 = ADVANCED_FACE ( 'NONE', ( #121 ), #102, .T. ) ;
#170 = VECTOR ( 'NONE', #127, 1000.000000000000000 ) ;
#171 = APPROVAL_PERSON_ORGANIZATION ( #104, #70, #26 ) ;
#172 = PERSON_AND_ORGANIZATION ( #157, #22 ) ;
#173 = PRODUCT_DEFINITION_FORMATION_WITH_SPECIFIED_SOURCE ( 'ANY', '', #150, .NOT_KNOWN. ) ;
#174 = DIRECTION ( 'NONE',  ( 1.000000000000000000, 0.0000000000000000000, 0.0000000000000000000 ) ) ;
#175 = ORIENTED_EDGE ( 'NONE', *, *, #34, .F. ) ;
ENDSEC;
END-ISO-10303-21;
