ISO-10303-21;
HEADER;
FILE_DESCRIPTION (( 'STEP AP203' ),
    '1' );
FILE_NAME ('Web Model 68547.STEP',
    '2017-02-01T13:30:34',
    ( '' ),
    ( '' ),
    'SwSTEP 2.0',
    'SolidWorks 2016',
    '' );
FILE_SCHEMA (( 'CONFIG_CONTROL_DESIGN' ));
ENDSEC;

DATA;
#1 = PLANE ( 'NONE',  #315 ) ;
#2 = AXIS2_PLACEMENT_3D ( 'NONE', #42, #282, #170 ) ;
#3 = FACE_OUTER_BOUND ( 'NONE', #251, .T. ) ;
#4 = ORIENTED_EDGE ( 'NONE', *, *, #89, .T. ) ;
#5 = DIRECTION ( 'NONE',  ( -1.000000000000000000, 0.0000000000000000000, -0.0000000000000000000 ) ) ;
#6 = DIRECTION ( 'NONE',  ( -0.7071067811865474600, -0.0000000000000000000, -0.7071067811865474600 ) ) ;
#7 = LINE ( 'NONE', #60, #287 ) ;
#8 = PLANE ( 'NONE',  #283 ) ;
#9 = CC_DESIGN_APPROVAL ( #103, ( #319 ) ) ;
#10 = CARTESIAN_POINT ( 'NONE',  ( 0.0000000000000000000, 10.00000000000000000, 0.0000000000000000000 ) ) ;
#11 = VECTOR ( 'NONE', #97, 1000.000000000000000 ) ;
#12 = ORIENTED_EDGE ( 'NONE', *, *, #48, .F. ) ;
#13 = VERTEX_POINT ( 'NONE', #168 ) ;
#14 = EDGE_CURVE ( 'NONE', #265, #182, #206, .T. ) ;
#15 = PLANE ( 'NONE',  #261 ) ;
#16 = VECTOR ( 'NONE', #114, 1000.000000000000000 ) ;
#17 = DIRECTION ( 'NONE',  ( 0.0000000000000000000, -1.000000000000000000, 0.0000000000000000000 ) ) ;
#18 = MECHANICAL_CONTEXT ( 'NONE', #266, 'mechanical' ) ;
#19 = APPLICATION_PROTOCOL_DEFINITION ( 'international standard', 'config_control_design', 1994, #252 ) ;
#20 = DATE_TIME_ROLE ( 'creation_date' ) ;
#21 = ORIENTED_EDGE ( 'NONE', *, *, #299, .T. ) ;
#22 = ORIENTED_EDGE ( 'NONE', *, *, #207, .T. ) ;
#23 = CC_DESIGN_SECURITY_CLASSIFICATION ( #184, ( #90 ) ) ;
#24 = VERTEX_POINT ( 'NONE', #190 ) ;
#25 = ORIENTED_EDGE ( 'NONE', *, *, #14, .T. ) ;
#26 = CALENDAR_DATE ( 2017, 1, 2 ) ;
#27 = CC_DESIGN_DATE_AND_TIME_ASSIGNMENT ( #274, #199, ( #184 ) ) ;
#28 = AXIS2_PLACEMENT_3D ( 'NONE', #138, #38, #214 ) ;
#29 = ORIENTED_EDGE ( 'NONE', *, *, #159, .T. ) ;
#30 = CARTESIAN_POINT ( 'NONE',  ( 0.0000000000000000000, 10.00000000000000000, 0.0000000000000000000 ) ) ;
#31 = LINE ( 'NONE', #141, #16 ) ;
#32 = ORIENTED_EDGE ( 'NONE', *, *, #284, .T. ) ;
#33 = ORIENTED_EDGE ( 'NONE', *, *, #191, .T. ) ;
#34 = PERSON_AND_ORGANIZATION ( #120, #163 ) ;
#35 = EDGE_CURVE ( 'NONE', #13, #24, #53, .T. ) ;
#36 = MANIFOLD_SOLID_BREP ( 'Extrude2', #162 ) ;
#37 = DIRECTION ( 'NONE',  ( 0.0000000000000000000, -0.0000000000000000000, -1.000000000000000000 ) ) ;
#38 = DIRECTION ( 'NONE',  ( 0.0000000000000000000, -1.000000000000000000, 0.0000000000000000000 ) ) ;
#39 = CC_DESIGN_APPROVAL ( #224, ( #90 ) ) ;
#40 = ORIENTED_EDGE ( 'NONE', *, *, #35, .T. ) ;
#41 = DIRECTION ( 'NONE',  ( 0.0000000000000000000, -0.0000000000000000000, -1.000000000000000000 ) ) ;
#42 = CARTESIAN_POINT ( 'NONE',  ( -1.734723475976807100E-015, 10.00000000000000000, -10.00000000000000000 ) ) ;
#43 = VECTOR ( 'NONE', #285, 1000.000000000000000 ) ;
#44 = APPROVAL_STATUS ( 'not_yet_approved' ) ;
#45 = CARTESIAN_POINT ( 'NONE',  ( 0.0000000000000000000, 0.0000000000000000000, 0.0000000000000000000 ) ) ;
#46 = EDGE_LOOP ( 'NONE', ( #153, #85, #151 ) ) ;
#47 =( GEOMETRIC_REPRESENTATION_CONTEXT ( 3 ) GLOBAL_UNCERTAINTY_ASSIGNED_CONTEXT ( ( #260 ) ) GLOBAL_UNIT_ASSIGNED_CONTEXT ( ( #201, #146, #316 ) ) REPRESENTATION_CONTEXT ( 'NONE', 'WORKASPACE' ) );
#48 = EDGE_CURVE ( 'NONE', #99, #265, #140, .T. ) ;
#49 = FACE_OUTER_BOUND ( 'NONE', #96, .T. ) ;
#50 = ORIENTED_EDGE ( 'NONE', *, *, #195, .F. ) ;
#51 = AXIS2_PLACEMENT_3D ( 'NONE', #297, #208, #321 ) ;
#52 = VECTOR ( 'NONE', #143, 1000.000000000000100 ) ;
#53 = LINE ( 'NONE', #116, #83 ) ;
#54 = COORDINATED_UNIVERSAL_TIME_OFFSET ( 5, 0, .BEHIND. ) ;
#55 = CARTESIAN_POINT ( 'NONE',  ( 9.999999999999998200, 10.00000000000000000, 0.0000000000000000000 ) ) ;
#56 = CC_DESIGN_PERSON_AND_ORGANIZATION_ASSIGNMENT ( #269, #291, ( #184 ) ) ;
#57 = VERTEX_POINT ( 'NONE', #192 ) ;
#58 = CARTESIAN_POINT ( 'NONE',  ( 0.0000000000000000000, 0.0000000000000000000, 0.0000000000000000000 ) ) ;
#59 = APPROVAL_PERSON_ORGANIZATION ( #234, #227, #172 ) ;
#60 = CARTESIAN_POINT ( 'NONE',  ( 9.999999999999998200, 10.00000000000000000, 0.0000000000000000000 ) ) ;
#61 = ADVANCED_FACE ( 'NONE', ( #119 ), #8, .T. ) ;
#62 = CARTESIAN_POINT ( 'NONE',  ( 0.0000000000000000000, 10.00000000000000000, -10.00000000000000200 ) ) ;
#63 = DIRECTION ( 'NONE',  ( 0.0000000000000000000, -1.000000000000000000, 0.0000000000000000000 ) ) ;
#64 = VECTOR ( 'NONE', #238, 1000.000000000000000 ) ;
#65 = CC_DESIGN_APPROVAL ( #227, ( #184 ) ) ;
#66 = CARTESIAN_POINT ( 'NONE',  ( 9.999999999999998200, 0.0000000000000000000, 0.0000000000000000000 ) ) ;
#67 = LINE ( 'NONE', #62, #242 ) ;
#68 = CARTESIAN_POINT ( 'NONE',  ( 0.0000000000000000000, 10.00000000000000000, -10.00000000000000200 ) ) ;
#69 = LINE ( 'NONE', #301, #258 ) ;
#70 = ORIENTED_EDGE ( 'NONE', *, *, #212, .F. ) ;
#71 = SHAPE_DEFINITION_REPRESENTATION ( #181, #204 ) ;
#72 = CARTESIAN_POINT ( 'NONE',  ( 0.0000000000000000000, 0.0000000000000000000, 0.0000000000000000000 ) ) ;
#73 = DIRECTION ( 'NONE',  ( 1.000000000000000000, 0.0000000000000000000, 0.0000000000000000000 ) ) ;
#74 = CARTESIAN_POINT ( 'NONE',  ( 9.999999999999994700, 0.0000000000000000000, -10.00000000000000000 ) ) ;
#75 = LOCAL_TIME ( 8, 30, 34.00000000000000000, #54 ) ;
#76 = PERSON_AND_ORGANIZATION_ROLE ( 'creator' ) ;
#77 = FACE_OUTER_BOUND ( 'NONE', #110, .T. ) ;
#78 = LINE ( 'NONE', #311, #107 ) ;
#79 = ORIENTED_EDGE ( 'NONE', *, *, #207, .F. ) ;
#80 = LINE ( 'NONE', #171, #112 ) ;
#81 = LOCAL_TIME ( 8, 30, 34.00000000000000000, #155 ) ;
#82 = ORIENTED_EDGE ( 'NONE', *, *, #284, .F. ) ;
#83 = VECTOR ( 'NONE', #137, 1000.000000000000000 ) ;
#84 = AXIS2_PLACEMENT_3D ( 'NONE', #45, #229, #73 ) ;
#85 = ORIENTED_EDGE ( 'NONE', *, *, #191, .F. ) ;
#86 = EDGE_CURVE ( 'NONE', #13, #272, #300, .T. ) ;
#87 = LOCAL_TIME ( 8, 30, 34.00000000000000000, #149 ) ;
#88 = ADVANCED_FACE ( 'NONE', ( #253 ), #241, .F. ) ;
#89 = EDGE_CURVE ( 'NONE', #276, #288, #67, .T. ) ;
#90 = PRODUCT_DEFINITION_FORMATION_WITH_SPECIFIED_SOURCE ( 'ANY', '', #280, .NOT_KNOWN. ) ;
#91 = ORIENTED_EDGE ( 'NONE', *, *, #232, .T. ) ;
#92 = CARTESIAN_POINT ( 'NONE',  ( -1.734723475976807100E-015, 10.00000000000000000, -10.00000000000000000 ) ) ;
#93 = PERSON_AND_ORGANIZATION ( #120, #163 ) ;
#94 = DIRECTION ( 'NONE',  ( 1.000000000000000000, 0.0000000000000000000, -0.0000000000000000000 ) ) ;
#95 = CARTESIAN_POINT ( 'NONE',  ( 0.0000000000000000000, 0.0000000000000000000, -10.00000000000000200 ) ) ;
#96 = EDGE_LOOP ( 'NONE', ( #25, #267, #292 ) ) ;
#97 = DIRECTION ( 'NONE',  ( -0.0000000000000000000, -1.000000000000000000, -0.0000000000000000000 ) ) ;
#98 = CC_DESIGN_DATE_AND_TIME_ASSIGNMENT ( #262, #20, ( #319 ) ) ;
#99 = VERTEX_POINT ( 'NONE', #92 ) ;
#100 = DIRECTION ( 'NONE',  ( -0.0000000000000000000, -1.000000000000000000, -0.0000000000000000000 ) ) ;
#101 = CARTESIAN_POINT ( 'NONE',  ( 9.999999999999998200, 0.0000000000000000000, 0.0000000000000000000 ) ) ;
#102 = CARTESIAN_POINT ( 'NONE',  ( -1.734723475976807100E-015, 10.00000000000000000, -10.00000000000000000 ) ) ;
#103 = APPROVAL ( #44, 'UNSPECIFIED' ) ;
#104 = APPROVAL_PERSON_ORGANIZATION ( #115, #103, #225 ) ;
#105 = EDGE_LOOP ( 'NONE', ( #148, #40, #91 ) ) ;
#106 = LINE ( 'NONE', #72, #196 ) ;
#107 = VECTOR ( 'NONE', #175, 1000.000000000000000 ) ;
#108 = EDGE_CURVE ( 'NONE', #228, #296, #31, .T. ) ;
#109 = PLANE ( 'NONE',  #51 ) ;
#110 = EDGE_LOOP ( 'NONE', ( #29, #82, #219, #205 ) ) ;
#111 = DIRECTION ( 'NONE',  ( 3.469446951953614200E-016, 0.0000000000000000000, 1.000000000000000000 ) ) ;
#112 = VECTOR ( 'NONE', #218, 1000.000000000000000 ) ;
#113 = CALENDAR_DATE ( 2017, 1, 2 ) ;
#114 = DIRECTION ( 'NONE',  ( -1.000000000000000000, -0.0000000000000000000, -0.0000000000000000000 ) ) ;
#115 = PERSON_AND_ORGANIZATION ( #120, #163 ) ;
#116 = CARTESIAN_POINT ( 'NONE',  ( 0.0000000000000000000, 10.00000000000000000, 0.0000000000000000000 ) ) ;
#117 = AXIS2_PLACEMENT_3D ( 'NONE', #30, #183, #5 ) ;
#118 = DIRECTION ( 'NONE',  ( -3.469446951953614200E-016, 0.0000000000000000000, -1.000000000000000000 ) ) ;
#119 = FACE_OUTER_BOUND ( 'NONE', #293, .T. ) ;
#120 = PERSON ( 'UNSPECIFIED', 'UNSPECIFIED', 'UNSPECIFIED', ('UNSPECIFIED'), ('UNSPECIFIED'), ('UNSPECIFIED') ) ;
#121 = ORIENTED_EDGE ( 'NONE', *, *, #89, .F. ) ;
#122 = DIRECTION ( 'NONE',  ( -0.0000000000000000000, -1.000000000000000000, -0.0000000000000000000 ) ) ;
#123 = LINE ( 'NONE', #309, #245 ) ;
#124 = APPROVAL_ROLE ( '' ) ;
#125 = COORDINATED_UNIVERSAL_TIME_OFFSET ( 5, 0, .BEHIND. ) ;
#126 = DIRECTION ( 'NONE',  ( -0.0000000000000000000, -1.000000000000000000, -0.0000000000000000000 ) ) ;
#127 = LINE ( 'NONE', #102, #233 ) ;
#128 = CLOSED_SHELL ( 'NONE', ( #270, #259, #160, #211, #61 ) ) ;
#129 = DATE_AND_TIME ( #318, #87 ) ;
#130 = DIRECTION ( 'NONE',  ( -0.0000000000000000000, -1.000000000000000000, -0.0000000000000000000 ) ) ;
#131 = AXIS2_PLACEMENT_3D ( 'NONE', #312, #144, #313 ) ;
#132 = VECTOR ( 'NONE', #118, 1000.000000000000000 ) ;
#133 = CARTESIAN_POINT ( 'NONE',  ( 0.0000000000000000000, 10.00000000000000000, -10.00000000000000200 ) ) ;
#134 = ADVANCED_FACE ( 'NONE', ( #237 ), #210, .T. ) ;
#135 = APPROVAL_PERSON_ORGANIZATION ( #209, #224, #124 ) ;
#136 = EDGE_LOOP ( 'NONE', ( #263, #79, #279, #254 ) ) ;
#137 = DIRECTION ( 'NONE',  ( 1.000000000000000000, 0.0000000000000000000, 0.0000000000000000000 ) ) ;
#138 = CARTESIAN_POINT ( 'NONE',  ( 9.999999999999994700, 0.0000000000000000000, -10.00000000000000000 ) ) ;
#139 = LINE ( 'NONE', #188, #52 ) ;
#140 = LINE ( 'NONE', #189, #308 ) ;
#141 = CARTESIAN_POINT ( 'NONE',  ( -1.734723475976807100E-015, 0.0000000000000000000, -10.00000000000000000 ) ) ;
#142 = APPROVAL_STATUS ( 'not_yet_approved' ) ;
#143 = DIRECTION ( 'NONE',  ( 0.7071067811865474600, 0.0000000000000000000, 0.7071067811865474600 ) ) ;
#144 = DIRECTION ( 'NONE',  ( 0.0000000000000000000, -1.000000000000000000, 0.0000000000000000000 ) ) ;
#145 = CARTESIAN_POINT ( 'NONE',  ( 0.0000000000000000000, 0.0000000000000000000, -10.00000000000000200 ) ) ;
#146 =( NAMED_UNIT ( * ) PLANE_ANGLE_UNIT ( ) SI_UNIT ( $, .RADIAN. ) );
#147 = ORIENTED_EDGE ( 'NONE', *, *, #198, .F. ) ;
#148 = ORIENTED_EDGE ( 'NONE', *, *, #195, .T. ) ;
#149 = COORDINATED_UNIVERSAL_TIME_OFFSET ( 5, 0, .BEHIND. ) ;
#150 = EDGE_CURVE ( 'NONE', #57, #288, #250, .T. ) ;
#151 = ORIENTED_EDGE ( 'NONE', *, *, #108, .F. ) ;
#152 = CC_DESIGN_PERSON_AND_ORGANIZATION_ASSIGNMENT ( #256, #197, ( #90 ) ) ;
#153 = ORIENTED_EDGE ( 'NONE', *, *, #159, .F. ) ;
#154 = VECTOR ( 'NONE', #298, 1000.000000000000100 ) ;
#155 = COORDINATED_UNIVERSAL_TIME_OFFSET ( 5, 0, .BEHIND. ) ;
#156 = ORIENTED_EDGE ( 'NONE', *, *, #108, .T. ) ;
#157 = ORIENTED_EDGE ( 'NONE', *, *, #150, .F. ) ;
#158 = PERSON_AND_ORGANIZATION ( #120, #163 ) ;
#159 = EDGE_CURVE ( 'NONE', #203, #228, #304, .T. ) ;
#160 = ADVANCED_FACE ( 'NONE', ( #173 ), #303, .F. ) ;
#161 = ADVANCED_FACE ( 'NONE', ( #176 ), #215, .F. ) ;
#162 = CLOSED_SHELL ( 'NONE', ( #273, #88, #161, #302, #134 ) ) ;
#163 = ORGANIZATION ( 'UNSPECIFIED', 'UNSPECIFIED', '' ) ;
#164 = DATE_AND_TIME ( #26, #81 ) ;
#165 = CARTESIAN_POINT ( 'NONE',  ( 9.999999999999998200, 10.00000000000000000, 0.0000000000000000000 ) ) ;
#166 = CARTESIAN_POINT ( 'NONE',  ( 0.0000000000000000000, 0.0000000000000000000, 0.0000000000000000000 ) ) ;
#167 = CC_DESIGN_PERSON_AND_ORGANIZATION_ASSIGNMENT ( #158, #286, ( #90 ) ) ;
#168 = CARTESIAN_POINT ( 'NONE',  ( 0.0000000000000000000, 10.00000000000000000, 0.0000000000000000000 ) ) ;
#169 = VECTOR ( 'NONE', #6, 1000.000000000000100 ) ;
#170 = DIRECTION ( 'NONE',  ( -0.7071067811865474600, 0.0000000000000000000, -0.7071067811865474600 ) ) ;
#171 = CARTESIAN_POINT ( 'NONE',  ( 0.0000000000000000000, 10.00000000000000000, 0.0000000000000000000 ) ) ;
#172 = APPROVAL_ROLE ( '' ) ;
#173 = FACE_OUTER_BOUND ( 'NONE', #235, .T. ) ;
#174 = APPROVAL_DATE_TIME ( #164, #224 ) ;
#175 = DIRECTION ( 'NONE',  ( -1.000000000000000000, -0.0000000000000000000, -0.0000000000000000000 ) ) ;
#176 = FACE_OUTER_BOUND ( 'NONE', #186, .T. ) ;
#177 = APPLICATION_PROTOCOL_DEFINITION ( 'international standard', 'config_control_design', 1994, #266 ) ;
#178 = EDGE_LOOP ( 'NONE', ( #156, #275, #147, #32 ) ) ;
#179 = FACE_OUTER_BOUND ( 'NONE', #105, .T. ) ;
#180 = LOCAL_TIME ( 8, 30, 34.00000000000000000, #246 ) ;
#181 = PRODUCT_DEFINITION_SHAPE ( 'NONE', 'NONE',  #319 ) ;
#182 = VERTEX_POINT ( 'NONE', #217 ) ;
#183 = DIRECTION ( 'NONE',  ( 0.0000000000000000000, 0.0000000000000000000, -1.000000000000000000 ) ) ;
#184 = SECURITY_CLASSIFICATION ( '', '', #249 ) ;
#185 = PLANE ( 'NONE',  #117 ) ;
#186 = EDGE_LOOP ( 'NONE', ( #33, #213, #12, #21 ) ) ;
#187 = DIRECTION ( 'NONE',  ( -0.0000000000000000000, -1.000000000000000000, -0.0000000000000000000 ) ) ;
#188 = CARTESIAN_POINT ( 'NONE',  ( -1.734723475976807100E-015, 0.0000000000000000000, -10.00000000000000000 ) ) ;
#189 = CARTESIAN_POINT ( 'NONE',  ( -1.734723475976807100E-015, 10.00000000000000000, -10.00000000000000000 ) ) ;
#190 = CARTESIAN_POINT ( 'NONE',  ( 10.00000000000000200, 10.00000000000000000, 0.0000000000000000000 ) ) ;
#191 = EDGE_CURVE ( 'NONE', #296, #203, #139, .T. ) ;
#192 = CARTESIAN_POINT ( 'NONE',  ( 10.00000000000000200, 0.0000000000000000000, 0.0000000000000000000 ) ) ;
#193 = ORIENTED_EDGE ( 'NONE', *, *, #86, .F. ) ;
#194 = DIRECTION ( 'NONE',  ( -0.0000000000000000000, -0.0000000000000000000, 1.000000000000000000 ) ) ;
#195 = EDGE_CURVE ( 'NONE', #276, #13, #80, .T. ) ;
#196 = VECTOR ( 'NONE', #194, 1000.000000000000000 ) ;
#197 = PERSON_AND_ORGANIZATION_ROLE ( 'design_supplier' ) ;
#198 = EDGE_CURVE ( 'NONE', #182, #99, #78, .T. ) ;
#199 = DATE_TIME_ROLE ( 'classification_date' ) ;
#200 = APPROVAL_DATE_TIME ( #294, #103 ) ;
#201 =( LENGTH_UNIT ( ) NAMED_UNIT ( * ) SI_UNIT ( .MILLI., .METRE. ) );
#202 = APPROVAL_STATUS ( 'not_yet_approved' ) ;
#203 = VERTEX_POINT ( 'NONE', #101 ) ;
#204 = ADVANCED_BREP_SHAPE_REPRESENTATION ( 'Web Model 68547', ( #310, #36, #84 ), #47 ) ;
#205 = ORIENTED_EDGE ( 'NONE', *, *, #268, .T. ) ;
#206 = LINE ( 'NONE', #165, #132 ) ;
#207 = EDGE_CURVE ( 'NONE', #24, #57, #123, .T. ) ;
#208 = DIRECTION ( 'NONE',  ( 1.000000000000000000, -0.0000000000000000000, 0.0000000000000000000 ) ) ;
#209 = PERSON_AND_ORGANIZATION ( #120, #163 ) ;
#210 = PLANE ( 'NONE',  #28 ) ;
#211 = ADVANCED_FACE ( 'NONE', ( #179 ), #15, .F. ) ;
#212 = EDGE_CURVE ( 'NONE', #272, #57, #255, .T. ) ;
#213 = ORIENTED_EDGE ( 'NONE', *, *, #268, .F. ) ;
#214 = DIRECTION ( 'NONE',  ( 0.0000000000000000000, 0.0000000000000000000, -1.000000000000000000 ) ) ;
#215 = PLANE ( 'NONE',  #2 ) ;
#216 = LOCAL_TIME ( 8, 30, 34.00000000000000000, #125 ) ;
#217 = CARTESIAN_POINT ( 'NONE',  ( 9.999999999999994700, 10.00000000000000000, -10.00000000000000000 ) ) ;
#218 = DIRECTION ( 'NONE',  ( -0.0000000000000000000, -0.0000000000000000000, 1.000000000000000000 ) ) ;
#219 = ORIENTED_EDGE ( 'NONE', *, *, #14, .F. ) ;
#220 = PERSON_AND_ORGANIZATION_ROLE ( 'design_owner' ) ;
#221 = CARTESIAN_POINT ( 'NONE',  ( 0.0000000000000000000, 10.00000000000000000, 0.0000000000000000000 ) ) ;
#222 = AXIS2_PLACEMENT_3D ( 'NONE', #281, #240, #94 ) ;
#223 = ORIENTED_EDGE ( 'NONE', *, *, #232, .F. ) ;
#224 = APPROVAL ( #202, 'UNSPECIFIED' ) ;
#225 = APPROVAL_ROLE ( '' ) ;
#226 = APPROVAL_DATE_TIME ( #129, #227 ) ;
#227 = APPROVAL ( #142, 'UNSPECIFIED' ) ;
#228 = VERTEX_POINT ( 'NONE', #74 ) ;
#229 = DIRECTION ( 'NONE',  ( 0.0000000000000000000, 0.0000000000000000000, 1.000000000000000000 ) ) ;
#230 = ORIENTED_EDGE ( 'NONE', *, *, #150, .T. ) ;
#231 = EDGE_CURVE ( 'NONE', #288, #272, #106, .T. ) ;
#232 = EDGE_CURVE ( 'NONE', #24, #276, #248, .T. ) ;
#233 = VECTOR ( 'NONE', #100, 1000.000000000000000 ) ;
#234 = PERSON_AND_ORGANIZATION ( #120, #163 ) ;
#235 = EDGE_LOOP ( 'NONE', ( #230, #121, #223, #22 ) ) ;
#236 = DIRECTION ( 'NONE',  ( -1.000000000000000000, 0.0000000000000000000, 3.469446951953614200E-016 ) ) ;
#237 = FACE_OUTER_BOUND ( 'NONE', #46, .T. ) ;
#238 = DIRECTION ( 'NONE',  ( -3.469446951953614200E-016, 0.0000000000000000000, -1.000000000000000000 ) ) ;
#239 = DESIGN_CONTEXT ( 'detailed design', #252, 'design' ) ;
#240 = DIRECTION ( 'NONE',  ( 0.0000000000000000000, 0.0000000000000000000, 1.000000000000000000 ) ) ;
#241 = PLANE ( 'NONE',  #222 ) ;
#242 = VECTOR ( 'NONE', #187, 1000.000000000000000 ) ;
#243 = CARTESIAN_POINT ( 'NONE',  ( 0.0000000000000000000, 0.0000000000000000000, 0.0000000000000000000 ) ) ;
#244 = ORIENTED_EDGE ( 'NONE', *, *, #231, .T. ) ;
#245 = VECTOR ( 'NONE', #122, 1000.000000000000000 ) ;
#246 = COORDINATED_UNIVERSAL_TIME_OFFSET ( 5, 0, .BEHIND. ) ;
#247 = CARTESIAN_POINT ( 'NONE',  ( 9.999999999999998200, 10.00000000000000000, 0.0000000000000000000 ) ) ;
#248 = LINE ( 'NONE', #68, #154 ) ;
#249 = SECURITY_CLASSIFICATION_LEVEL ( 'unclassified' ) ;
#250 = LINE ( 'NONE', #95, #169 ) ;
#251 = EDGE_LOOP ( 'NONE', ( #244, #193, #50, #4 ) ) ;
#252 = APPLICATION_CONTEXT ( 'configuration controlled 3d designs of mechanical parts and assemblies' ) ;
#253 = FACE_OUTER_BOUND ( 'NONE', #178, .T. ) ;
#254 = ORIENTED_EDGE ( 'NONE', *, *, #86, .T. ) ;
#255 = LINE ( 'NONE', #243, #43 ) ;
#256 = PERSON_AND_ORGANIZATION ( #120, #163 ) ;
#257 = CC_DESIGN_PERSON_AND_ORGANIZATION_ASSIGNMENT ( #34, #76, ( #319 ) ) ;
#258 = VECTOR ( 'NONE', #126, 1000.000000000000000 ) ;
#259 = ADVANCED_FACE ( 'NONE', ( #289 ), #185, .F. ) ;
#260 = UNCERTAINTY_MEASURE_WITH_UNIT (LENGTH_MEASURE( 1.000000000000000100E-005 ), #201, 'distance_accuracy_value', 'NONE');
#261 = AXIS2_PLACEMENT_3D ( 'NONE', #221, #17, #41 ) ;
#262 = DATE_AND_TIME ( #320, #180 ) ;
#263 = ORIENTED_EDGE ( 'NONE', *, *, #212, .T. ) ;
#264 = CALENDAR_DATE ( 2017, 1, 2 ) ;
#265 = VERTEX_POINT ( 'NONE', #247 ) ;
#266 = APPLICATION_CONTEXT ( 'configuration controlled 3d designs of mechanical parts and assemblies' ) ;
#267 = ORIENTED_EDGE ( 'NONE', *, *, #198, .T. ) ;
#268 = EDGE_CURVE ( 'NONE', #265, #203, #7, .T. ) ;
#269 = PERSON_AND_ORGANIZATION ( #120, #163 ) ;
#270 = ADVANCED_FACE ( 'NONE', ( #3 ), #109, .F. ) ;
#271 = AXIS2_PLACEMENT_3D ( 'NONE', #278, #305, #307 ) ;
#272 = VERTEX_POINT ( 'NONE', #58 ) ;
#273 = ADVANCED_FACE ( 'NONE', ( #77 ), #1, .F. ) ;
#274 = DATE_AND_TIME ( #113, #216 ) ;
#275 = ORIENTED_EDGE ( 'NONE', *, *, #299, .F. ) ;
#276 = VERTEX_POINT ( 'NONE', #133 ) ;
#277 = PRODUCT_RELATED_PRODUCT_CATEGORY ( 'detail', '', ( #280 ) ) ;
#278 = CARTESIAN_POINT ( 'NONE',  ( 0.0000000000000000000, 10.00000000000000000, -10.00000000000000200 ) ) ;
#279 = ORIENTED_EDGE ( 'NONE', *, *, #35, .F. ) ;
#280 = PRODUCT ( 'Web Model 68547', 'Web Model 68547', '', ( #18 ) ) ;
#281 = CARTESIAN_POINT ( 'NONE',  ( -1.734723475976807100E-015, 10.00000000000000000, -10.00000000000000000 ) ) ;
#282 = DIRECTION ( 'NONE',  ( 0.7071067811865475700, 0.0000000000000000000, -0.7071067811865475700 ) ) ;
#283 = AXIS2_PLACEMENT_3D ( 'NONE', #166, #63, #37 ) ;
#284 = EDGE_CURVE ( 'NONE', #182, #228, #69, .T. ) ;
#285 = DIRECTION ( 'NONE',  ( 1.000000000000000000, 0.0000000000000000000, 0.0000000000000000000 ) ) ;
#286 = PERSON_AND_ORGANIZATION_ROLE ( 'creator' ) ;
#287 = VECTOR ( 'NONE', #130, 1000.000000000000000 ) ;
#288 = VERTEX_POINT ( 'NONE', #145 ) ;
#289 = FACE_OUTER_BOUND ( 'NONE', #136, .T. ) ;
#290 = PLANE ( 'NONE',  #131 ) ;
#291 = PERSON_AND_ORGANIZATION_ROLE ( 'classification_officer' ) ;
#292 = ORIENTED_EDGE ( 'NONE', *, *, #48, .T. ) ;
#293 = EDGE_LOOP ( 'NONE', ( #317, #157, #70 ) ) ;
#294 = DATE_AND_TIME ( #264, #75 ) ;
#295 = CC_DESIGN_PERSON_AND_ORGANIZATION_ASSIGNMENT ( #93, #220, ( #280 ) ) ;
#296 = VERTEX_POINT ( 'NONE', #314 ) ;
#297 = CARTESIAN_POINT ( 'NONE',  ( 0.0000000000000000000, 10.00000000000000000, 0.0000000000000000000 ) ) ;
#298 = DIRECTION ( 'NONE',  ( -0.7071067811865474600, -0.0000000000000000000, -0.7071067811865474600 ) ) ;
#299 = EDGE_CURVE ( 'NONE', #99, #296, #127, .T. ) ;
#300 = LINE ( 'NONE', #10, #11 ) ;
#301 = CARTESIAN_POINT ( 'NONE',  ( 9.999999999999994700, 10.00000000000000000, -10.00000000000000000 ) ) ;
#302 = ADVANCED_FACE ( 'NONE', ( #49 ), #290, .F. ) ;
#303 = PLANE ( 'NONE',  #271 ) ;
#304 = LINE ( 'NONE', #66, #64 ) ;
#305 = DIRECTION ( 'NONE',  ( -0.7071067811865475700, 0.0000000000000000000, 0.7071067811865475700 ) ) ;
#306 = DIRECTION ( 'NONE',  ( 0.7071067811865474600, 0.0000000000000000000, 0.7071067811865474600 ) ) ;
#307 = DIRECTION ( 'NONE',  ( 0.7071067811865474600, 0.0000000000000000000, 0.7071067811865474600 ) ) ;
#308 = VECTOR ( 'NONE', #306, 1000.000000000000100 ) ;
#309 = CARTESIAN_POINT ( 'NONE',  ( 10.00000000000000200, 10.00000000000000000, 0.0000000000000000000 ) ) ;
#310 = MANIFOLD_SOLID_BREP ( 'Extrude1', #128 ) ;
#311 = CARTESIAN_POINT ( 'NONE',  ( -1.734723475976807100E-015, 10.00000000000000000, -10.00000000000000000 ) ) ;
#312 = CARTESIAN_POINT ( 'NONE',  ( 9.999999999999994700, 10.00000000000000000, -10.00000000000000000 ) ) ;
#313 = DIRECTION ( 'NONE',  ( 0.0000000000000000000, 0.0000000000000000000, -1.000000000000000000 ) ) ;
#314 = CARTESIAN_POINT ( 'NONE',  ( -1.734723475976807100E-015, 0.0000000000000000000, -10.00000000000000000 ) ) ;
#315 = AXIS2_PLACEMENT_3D ( 'NONE', #55, #236, #111 ) ;
#316 =( NAMED_UNIT ( * ) SI_UNIT ( $, .STERADIAN. ) SOLID_ANGLE_UNIT ( ) );
#317 = ORIENTED_EDGE ( 'NONE', *, *, #231, .F. ) ;
#318 = CALENDAR_DATE ( 2017, 1, 2 ) ;
#319 = PRODUCT_DEFINITION ( 'UNKNOWN', '', #90, #239 ) ;
#320 = CALENDAR_DATE ( 2017, 1, 2 ) ;
#321 = DIRECTION ( 'NONE',  ( 0.0000000000000000000, 0.0000000000000000000, -1.000000000000000000 ) ) ;
ENDSEC;
END-ISO-10303-21;
