ISO-10303-21;
HEADER;
FILE_DESCRIPTION (( 'STEP AP203' ),
    '1' );
FILE_NAME ('34429_37018.step',
    '2017-09-06T15:46:52',
    ( '' ),
    ( '' ),
    'SwSTEP 2.0',
    'SolidWorks 2016',
    '' );
FILE_SCHEMA (( 'CONFIG_CONTROL_DESIGN' ));
ENDSEC;

DATA;
#1 = CARTESIAN_POINT ( 'NONE',  ( -25.00000000000000000, 0.0000000000000000000, 3.000000000000000000 ) ) ;
#2 = DIRECTION ( 'NONE',  ( -1.000000000000000000, 0.0000000000000000000, 0.0000000000000000000 ) ) ;
#3 = PERSON_AND_ORGANIZATION_ROLE ( 'creator' ) ;
#4 = CIRCLE ( 'NONE', #11, 25.00000000000000000 ) ;
#5 = APPROVAL_ROLE ( '' ) ;
#6 = ORIENTED_EDGE ( 'NONE', *, *, #8, .F. ) ;
#7 = ADVANCED_FACE ( 'NONE', ( #110 ), #135, .T. ) ;
#8 = EDGE_CURVE ( 'NONE', #10, #62, #133, .T. ) ;
#9 = PERSON_AND_ORGANIZATION ( #102, #55 ) ;
#10 = VERTEX_POINT ( 'NONE', #160 ) ;
#11 = AXIS2_PLACEMENT_3D ( 'NONE', #138, #173, #91 ) ;
#12 = PERSON_AND_ORGANIZATION ( #102, #55 ) ;
#13 = APPROVAL ( #96, 'UNSPECIFIED' ) ;
#14 = APPROVAL_DATE_TIME ( #37, #170 ) ;
#15 = COORDINATED_UNIVERSAL_TIME_OFFSET ( 5, 0, .BEHIND. ) ;
#16 = CARTESIAN_POINT ( 'NONE',  ( 0.0000000000000000000, 0.0000000000000000000, 3.000000000000000000 ) ) ;
#17 = PRODUCT_DEFINITION ( 'UNKNOWN', '', #104, #147 ) ;
#18 = AXIS2_PLACEMENT_3D ( 'NONE', #25, #125, #141 ) ;
#19 = APPROVAL_ROLE ( '' ) ;
#20 = CC_DESIGN_PERSON_AND_ORGANIZATION_ASSIGNMENT ( #79, #3, ( #104 ) ) ;
#21 = ADVANCED_FACE ( 'NONE', ( #40 ), #113, .F. ) ;
#22 = EDGE_CURVE ( 'NONE', #69, #10, #88, .T. ) ;
#23 = ORIENTED_EDGE ( 'NONE', *, *, #165, .T. ) ;
#24 = FACE_OUTER_BOUND ( 'NONE', #126, .T. ) ;
#25 = CARTESIAN_POINT ( 'NONE',  ( 0.0000000000000000000, 0.0000000000000000000, 3.000000000000000000 ) ) ;
#26 =( NAMED_UNIT ( * ) SI_UNIT ( $, .STERADIAN. ) SOLID_ANGLE_UNIT ( ) );
#27 = CIRCLE ( 'NONE', #72, 25.00000000000000000 ) ;
#28 = EDGE_CURVE ( 'NONE', #171, #62, #51, .T. ) ;
#29 = DIRECTION ( 'NONE',  ( 0.0000000000000000000, 0.0000000000000000000, 1.000000000000000000 ) ) ;
#30 = EDGE_LOOP ( 'NONE', ( #6, #161 ) ) ;
#31 = CYLINDRICAL_SURFACE ( 'NONE', #38, 25.00000000000000000 ) ;
#32 = SHAPE_DEFINITION_REPRESENTATION ( #87, #155 ) ;
#33 = CC_DESIGN_APPROVAL ( #70, ( #104 ) ) ;
#34 = CARTESIAN_POINT ( 'NONE',  ( 0.0000000000000000000, 0.0000000000000000000, 3.000000000000000000 ) ) ;
#35 = DIRECTION ( 'NONE',  ( -0.0000000000000000000, -0.0000000000000000000, -1.000000000000000000 ) ) ;
#36 = PERSON_AND_ORGANIZATION ( #102, #55 ) ;
#37 = DATE_AND_TIME ( #54, #43 ) ;
#38 = AXIS2_PLACEMENT_3D ( 'NONE', #93, #35, #2 ) ;
#39 = APPROVAL_PERSON_ORGANIZATION ( #58, #70, #5 ) ;
#40 = FACE_OUTER_BOUND ( 'NONE', #30, .T. ) ;
#41 = EDGE_CURVE ( 'NONE', #69, #171, #127, .T. ) ;
#42 = ORIENTED_EDGE ( 'NONE', *, *, #28, .T. ) ;
#43 = LOCAL_TIME ( 11, 46, 52.00000000000000000, #98 ) ;
#44 = VECTOR ( 'NONE', #64, 1000.000000000000000 ) ;
#45 = CALENDAR_DATE ( 2017, 6, 9 ) ;
#46 = DIRECTION ( 'NONE',  ( -0.0000000000000000000, -0.0000000000000000000, -1.000000000000000000 ) ) ;
#47 = DIRECTION ( 'NONE',  ( 0.0000000000000000000, 0.0000000000000000000, 1.000000000000000000 ) ) ;
#48 = EDGE_LOOP ( 'NONE', ( #112, #158, #123, #57 ) ) ;
#49 = PERSON_AND_ORGANIZATION_ROLE ( 'classification_officer' ) ;
#50 = APPROVAL_STATUS ( 'not_yet_approved' ) ;
#51 = LINE ( 'NONE', #163, #174 ) ;
#52 = DATE_AND_TIME ( #45, #169 ) ;
#53 = AXIS2_PLACEMENT_3D ( 'NONE', #63, #47, #105 ) ;
#54 = CALENDAR_DATE ( 2017, 6, 9 ) ;
#55 = ORGANIZATION ( 'UNSPECIFIED', 'UNSPECIFIED', '' ) ;
#56 = UNCERTAINTY_MEASURE_WITH_UNIT (LENGTH_MEASURE( 1.000000000000000100E-005 ), #73, 'distance_accuracy_value', 'NONE');
#57 = ORIENTED_EDGE ( 'NONE', *, *, #8, .T. ) ;
#58 = PERSON_AND_ORGANIZATION ( #102, #55 ) ;
#59 = DATE_AND_TIME ( #101, #86 ) ;
#60 = AXIS2_PLACEMENT_3D ( 'NONE', #77, #76, #142 ) ;
#61 = CARTESIAN_POINT ( 'NONE',  ( 25.00000000000000000, 3.061616997868383000E-015, 0.0000000000000000000 ) ) ;
#62 = VERTEX_POINT ( 'NONE', #61 ) ;
#63 = CARTESIAN_POINT ( 'NONE',  ( 0.0000000000000000000, 0.0000000000000000000, 0.0000000000000000000 ) ) ;
#64 = DIRECTION ( 'NONE',  ( -0.0000000000000000000, -0.0000000000000000000, -1.000000000000000000 ) ) ;
#65 = APPROVAL_STATUS ( 'not_yet_approved' ) ;
#66 = AXIS2_PLACEMENT_3D ( 'NONE', #16, #128, #94 ) ;
#67 = MECHANICAL_CONTEXT ( 'NONE', #164, 'mechanical' ) ;
#68 = CALENDAR_DATE ( 2017, 6, 9 ) ;
#69 = VERTEX_POINT ( 'NONE', #1 ) ;
#70 = APPROVAL ( #65, 'UNSPECIFIED' ) ;
#71 = DATE_AND_TIME ( #106, #74 ) ;
#72 = AXIS2_PLACEMENT_3D ( 'NONE', #107, #29, #99 ) ;
#73 =( LENGTH_UNIT ( ) NAMED_UNIT ( * ) SI_UNIT ( .MILLI., .METRE. ) );
#74 = LOCAL_TIME ( 11, 46, 52.00000000000000000, #119 ) ;
#75 = PRODUCT_RELATED_PRODUCT_CATEGORY ( 'detail', '', ( #152 ) ) ;
#76 = DIRECTION ( 'NONE',  ( 0.0000000000000000000, 0.0000000000000000000, 1.000000000000000000 ) ) ;
#77 = CARTESIAN_POINT ( 'NONE',  ( 0.0000000000000000000, 0.0000000000000000000, 0.0000000000000000000 ) ) ;
#78 = APPLICATION_PROTOCOL_DEFINITION ( 'international standard', 'config_control_design', 1994, #146 ) ;
#79 = PERSON_AND_ORGANIZATION ( #102, #55 ) ;
#80 = CC_DESIGN_DATE_AND_TIME_ASSIGNMENT ( #71, #167, ( #17 ) ) ;
#81 = APPLICATION_PROTOCOL_DEFINITION ( 'international standard', 'config_control_design', 1994, #164 ) ;
#82 =( GEOMETRIC_REPRESENTATION_CONTEXT ( 3 ) GLOBAL_UNCERTAINTY_ASSIGNED_CONTEXT ( ( #56 ) ) GLOBAL_UNIT_ASSIGNED_CONTEXT ( ( #73, #120, #26 ) ) REPRESENTATION_CONTEXT ( 'NONE', 'WORKASPACE' ) );
#83 = ADVANCED_FACE ( 'NONE', ( #139 ), #31, .T. ) ;
#84 = ORIENTED_EDGE ( 'NONE', *, *, #22, .F. ) ;
#85 = ADVANCED_FACE ( 'NONE', ( #24 ), #159, .T. ) ;
#86 = LOCAL_TIME ( 11, 46, 52.00000000000000000, #144 ) ;
#87 = PRODUCT_DEFINITION_SHAPE ( 'NONE', 'NONE',  #17 ) ;
#88 = LINE ( 'NONE', #89, #44 ) ;
#89 = CARTESIAN_POINT ( 'NONE',  ( -25.00000000000000000, 0.0000000000000000000, 3.000000000000000000 ) ) ;
#90 = AXIS2_PLACEMENT_3D ( 'NONE', #34, #46, #92 ) ;
#91 = DIRECTION ( 'NONE',  ( 1.000000000000000000, 0.0000000000000000000, 0.0000000000000000000 ) ) ;
#92 = DIRECTION ( 'NONE',  ( -1.000000000000000000, 0.0000000000000000000, 0.0000000000000000000 ) ) ;
#93 = CARTESIAN_POINT ( 'NONE',  ( 0.0000000000000000000, 0.0000000000000000000, 3.000000000000000000 ) ) ;
#94 = DIRECTION ( 'NONE',  ( 1.000000000000000000, 0.0000000000000000000, -0.0000000000000000000 ) ) ;
#95 = CC_DESIGN_APPROVAL ( #170, ( #17 ) ) ;
#96 = APPROVAL_STATUS ( 'not_yet_approved' ) ;
#97 = DATE_TIME_ROLE ( 'classification_date' ) ;
#98 = COORDINATED_UNIVERSAL_TIME_OFFSET ( 5, 0, .BEHIND. ) ;
#99 = DIRECTION ( 'NONE',  ( 1.000000000000000000, 0.0000000000000000000, 0.0000000000000000000 ) ) ;
#100 = ORIENTED_EDGE ( 'NONE', *, *, #157, .F. ) ;
#101 = CALENDAR_DATE ( 2017, 6, 9 ) ;
#102 = PERSON ( 'UNSPECIFIED', 'UNSPECIFIED', 'UNSPECIFIED', ('UNSPECIFIED'), ('UNSPECIFIED'), ('UNSPECIFIED') ) ;
#103 = CLOSED_SHELL ( 'NONE', ( #83, #7, #85, #21 ) ) ;
#104 = PRODUCT_DEFINITION_FORMATION_WITH_SPECIFIED_SOURCE ( 'ANY', '', #152, .NOT_KNOWN. ) ;
#105 = DIRECTION ( 'NONE',  ( 1.000000000000000000, 0.0000000000000000000, 0.0000000000000000000 ) ) ;
#106 = CALENDAR_DATE ( 2017, 6, 9 ) ;
#107 = CARTESIAN_POINT ( 'NONE',  ( 0.0000000000000000000, 0.0000000000000000000, 0.0000000000000000000 ) ) ;
#108 = LOCAL_TIME ( 11, 46, 52.00000000000000000, #15 ) ;
#109 = DIRECTION ( 'NONE',  ( 0.0000000000000000000, 0.0000000000000000000, 1.000000000000000000 ) ) ;
#110 = FACE_OUTER_BOUND ( 'NONE', #48, .T. ) ;
#111 = PERSON_AND_ORGANIZATION ( #102, #55 ) ;
#112 = ORIENTED_EDGE ( 'NONE', *, *, #28, .F. ) ;
#113 = PLANE ( 'NONE',  #60 ) ;
#114 = DIRECTION ( 'NONE',  ( -0.0000000000000000000, -0.0000000000000000000, -1.000000000000000000 ) ) ;
#115 = SECURITY_CLASSIFICATION ( '', '', #118 ) ;
#116 = PERSON_AND_ORGANIZATION_ROLE ( 'creator' ) ;
#117 = DATE_AND_TIME ( #68, #108 ) ;
#118 = SECURITY_CLASSIFICATION_LEVEL ( 'unclassified' ) ;
#119 = COORDINATED_UNIVERSAL_TIME_OFFSET ( 5, 0, .BEHIND. ) ;
#120 =( NAMED_UNIT ( * ) PLANE_ANGLE_UNIT ( ) SI_UNIT ( $, .RADIAN. ) );
#121 = PERSON_AND_ORGANIZATION ( #102, #55 ) ;
#122 = APPROVAL_DATE_TIME ( #117, #13 ) ;
#123 = ORIENTED_EDGE ( 'NONE', *, *, #22, .T. ) ;
#124 = CC_DESIGN_APPROVAL ( #13, ( #115 ) ) ;
#125 = DIRECTION ( 'NONE',  ( 0.0000000000000000000, 0.0000000000000000000, 1.000000000000000000 ) ) ;
#126 = EDGE_LOOP ( 'NONE', ( #137, #162 ) ) ;
#127 = CIRCLE ( 'NONE', #18, 25.00000000000000000 ) ;
#128 = DIRECTION ( 'NONE',  ( 0.0000000000000000000, 0.0000000000000000000, 1.000000000000000000 ) ) ;
#129 = CARTESIAN_POINT ( 'NONE',  ( 25.00000000000000000, 3.061616997868383000E-015, 3.000000000000000000 ) ) ;
#130 = PERSON_AND_ORGANIZATION_ROLE ( 'design_supplier' ) ;
#131 = CC_DESIGN_DATE_AND_TIME_ASSIGNMENT ( #59, #97, ( #115 ) ) ;
#132 = COORDINATED_UNIVERSAL_TIME_OFFSET ( 5, 0, .BEHIND. ) ;
#133 = CIRCLE ( 'NONE', #53, 25.00000000000000000 ) ;
#134 = APPROVAL_PERSON_ORGANIZATION ( #136, #13, #166 ) ;
#135 = CYLINDRICAL_SURFACE ( 'NONE', #90, 25.00000000000000000 ) ;
#136 = PERSON_AND_ORGANIZATION ( #102, #55 ) ;
#137 = ORIENTED_EDGE ( 'NONE', *, *, #41, .T. ) ;
#138 = CARTESIAN_POINT ( 'NONE',  ( 0.0000000000000000000, 0.0000000000000000000, 3.000000000000000000 ) ) ;
#139 = FACE_OUTER_BOUND ( 'NONE', #148, .T. ) ;
#140 = CC_DESIGN_SECURITY_CLASSIFICATION ( #115, ( #104 ) ) ;
#141 = DIRECTION ( 'NONE',  ( 1.000000000000000000, 0.0000000000000000000, 0.0000000000000000000 ) ) ;
#142 = DIRECTION ( 'NONE',  ( 1.000000000000000000, 0.0000000000000000000, -0.0000000000000000000 ) ) ;
#143 = CARTESIAN_POINT ( 'NONE',  ( 0.0000000000000000000, 0.0000000000000000000, 0.0000000000000000000 ) ) ;
#144 = COORDINATED_UNIVERSAL_TIME_OFFSET ( 5, 0, .BEHIND. ) ;
#145 = CC_DESIGN_PERSON_AND_ORGANIZATION_ASSIGNMENT ( #36, #116, ( #17 ) ) ;
#146 = APPLICATION_CONTEXT ( 'configuration controlled 3d designs of mechanical parts and assemblies' ) ;
#147 = DESIGN_CONTEXT ( 'detailed design', #146, 'design' ) ;
#148 = EDGE_LOOP ( 'NONE', ( #100, #42, #23, #84 ) ) ;
#149 = PERSON_AND_ORGANIZATION_ROLE ( 'design_owner' ) ;
#150 = MANIFOLD_SOLID_BREP ( 'Boss-Extrude1', #103 ) ;
#151 = APPROVAL_DATE_TIME ( #52, #70 ) ;
#152 = PRODUCT ( '34429_37018', '34429_37018', '', ( #67 ) ) ;
#153 = APPROVAL_PERSON_ORGANIZATION ( #111, #170, #19 ) ;
#154 = CC_DESIGN_PERSON_AND_ORGANIZATION_ASSIGNMENT ( #12, #130, ( #104 ) ) ;
#155 = ADVANCED_BREP_SHAPE_REPRESENTATION ( '34429_37018', ( #150, #172 ), #82 ) ;
#156 = CC_DESIGN_PERSON_AND_ORGANIZATION_ASSIGNMENT ( #9, #49, ( #115 ) ) ;
#157 = EDGE_CURVE ( 'NONE', #171, #69, #4, .T. ) ;
#158 = ORIENTED_EDGE ( 'NONE', *, *, #41, .F. ) ;
#159 = PLANE ( 'NONE',  #66 ) ;
#160 = CARTESIAN_POINT ( 'NONE',  ( -25.00000000000000000, 0.0000000000000000000, 0.0000000000000000000 ) ) ;
#161 = ORIENTED_EDGE ( 'NONE', *, *, #165, .F. ) ;
#162 = ORIENTED_EDGE ( 'NONE', *, *, #157, .T. ) ;
#163 = CARTESIAN_POINT ( 'NONE',  ( 25.00000000000000000, 3.061616997868383000E-015, 3.000000000000000000 ) ) ;
#164 = APPLICATION_CONTEXT ( 'configuration controlled 3d designs of mechanical parts and assemblies' ) ;
#165 = EDGE_CURVE ( 'NONE', #62, #10, #27, .T. ) ;
#166 = APPROVAL_ROLE ( '' ) ;
#167 = DATE_TIME_ROLE ( 'creation_date' ) ;
#168 = DIRECTION ( 'NONE',  ( 1.000000000000000000, 0.0000000000000000000, 0.0000000000000000000 ) ) ;
#169 = LOCAL_TIME ( 11, 46, 52.00000000000000000, #132 ) ;
#170 = APPROVAL ( #50, 'UNSPECIFIED' ) ;
#171 = VERTEX_POINT ( 'NONE', #129 ) ;
#172 = AXIS2_PLACEMENT_3D ( 'NONE', #143, #109, #168 ) ;
#173 = DIRECTION ( 'NONE',  ( 0.0000000000000000000, 0.0000000000000000000, 1.000000000000000000 ) ) ;
#174 = VECTOR ( 'NONE', #114, 1000.000000000000000 ) ;
#175 = CC_DESIGN_PERSON_AND_ORGANIZATION_ASSIGNMENT ( #121, #149, ( #152 ) ) ;
ENDSEC;
END-ISO-10303-21;
