ISO-10303-21;
HEADER;
FILE_DESCRIPTION (( 'STEP AP203' ),
    '1' );
FILE_NAME ('Web Model 45577_13315.step',
    '2020-11-03T21:49:46',
    ( '' ),
    ( '' ),
    'SwSTEP 2.0',
    'SolidWorks 2018',
    '' );
FILE_SCHEMA (( 'CONFIG_CONTROL_DESIGN' ));
ENDSEC;

DATA;
#1 = ORIENTED_EDGE ( 'NONE', *, *, #11, .F. ) ;
#2 = EDGE_CURVE ( 'NONE', #109, #171, #160, .T. ) ;
#3 = ORIENTED_EDGE ( 'NONE', *, *, #2, .T. ) ;
#4 = LOCAL_TIME ( 16, 49, 46.00000000000000000, #44 ) ;
#5 = DIRECTION ( 'NONE',  ( 1.000000000000000000, 0.0000000000000000000, -0.0000000000000000000 ) ) ;
#6 = CARTESIAN_POINT ( 'NONE',  ( 0.0000000000000000000, 0.0000000000000000000, -3.000000000000000000 ) ) ;
#7 = AXIS2_PLACEMENT_3D ( 'NONE', #137, #115, #139 ) ;
#8 = CARTESIAN_POINT ( 'NONE',  ( 0.0000000000000000000, 0.0000000000000000000, 0.0000000000000000000 ) ) ;
#9 = FACE_OUTER_BOUND ( 'NONE', #110, .T. ) ;
#10 = COORDINATED_UNIVERSAL_TIME_OFFSET ( 5, 0, .BEHIND. ) ;
#11 = EDGE_CURVE ( 'NONE', #95, #109, #114, .T. ) ;
#12 = AXIS2_PLACEMENT_3D ( 'NONE', #59, #50, #119 ) ;
#13 = FACE_OUTER_BOUND ( 'NONE', #127, .T. ) ;
#14 = LOCAL_TIME ( 16, 49, 46.00000000000000000, #145 ) ;
#15 = APPLICATION_PROTOCOL_DEFINITION ( 'international standard', 'config_control_design', 1994, #111 ) ;
#16 = CC_DESIGN_PERSON_AND_ORGANIZATION_ASSIGNMENT ( #64, #37, ( #144 ) ) ;
#17 = APPROVAL_STATUS ( 'not_yet_approved' ) ;
#18 = DIRECTION ( 'NONE',  ( 0.0000000000000000000, 0.0000000000000000000, 1.000000000000000000 ) ) ;
#19 = PERSON_AND_ORGANIZATION ( #154, #51 ) ;
#20 = VECTOR ( 'NONE', #118, 1000.000000000000000 ) ;
#21 = CARTESIAN_POINT ( 'NONE',  ( 0.0000000000000000000, 0.0000000000000000000, 0.0000000000000000000 ) ) ;
#22 = CARTESIAN_POINT ( 'NONE',  ( 0.0000000000000000000, 0.0000000000000000000, -3.000000000000000000 ) ) ;
#23 = APPROVAL_DATE_TIME ( #116, #132 ) ;
#24 = ORIENTED_EDGE ( 'NONE', *, *, #84, .T. ) ;
#25 = PERSON_AND_ORGANIZATION ( #154, #51 ) ;
#26 = ADVANCED_FACE ( 'NONE', ( #9 ), #83, .F. ) ;
#27 = AXIS2_PLACEMENT_3D ( 'NONE', #22, #149, #61 ) ;
#28 = CYLINDRICAL_SURFACE ( 'NONE', #7, 10.00000000000000000 ) ;
#29 = LOCAL_TIME ( 16, 49, 46.00000000000000000, #10 ) ;
#30 = CARTESIAN_POINT ( 'NONE',  ( 10.00000000000000000, 0.0000000000000000000, -3.000000000000000000 ) ) ;
#31 = APPROVAL_STATUS ( 'not_yet_approved' ) ;
#32 = COORDINATED_UNIVERSAL_TIME_OFFSET ( 5, 0, .BEHIND. ) ;
#33 = APPROVAL ( #157, 'UNSPECIFIED' ) ;
#34 = PERSON_AND_ORGANIZATION_ROLE ( 'design_owner' ) ;
#35 = CALENDAR_DATE ( 2020, 3, 11 ) ;
#36 = APPROVAL_ROLE ( '' ) ;
#37 = PERSON_AND_ORGANIZATION_ROLE ( 'creator' ) ;
#38 = APPROVAL_DATE_TIME ( #74, #33 ) ;
#39 = PERSON_AND_ORGANIZATION ( #154, #51 ) ;
#40 = CALENDAR_DATE ( 2020, 3, 11 ) ;
#41 =( GEOMETRIC_REPRESENTATION_CONTEXT ( 3 ) GLOBAL_UNCERTAINTY_ASSIGNED_CONTEXT ( ( #85 ) ) GLOBAL_UNIT_ASSIGNED_CONTEXT ( ( #86, #97, #78 ) ) REPRESENTATION_CONTEXT ( 'NONE', 'WORKASPACE' ) );
#42 = ADVANCED_FACE ( 'NONE', ( #91 ), #28, .T. ) ;
#43 = APPROVAL_PERSON_ORGANIZATION ( #19, #33, #159 ) ;
#44 = COORDINATED_UNIVERSAL_TIME_OFFSET ( 5, 0, .BEHIND. ) ;
#45 = CC_DESIGN_APPROVAL ( #33, ( #147 ) ) ;
#46 = COORDINATED_UNIVERSAL_TIME_OFFSET ( 5, 0, .BEHIND. ) ;
#47 = ORIENTED_EDGE ( 'NONE', *, *, #11, .T. ) ;
#48 = APPROVAL_ROLE ( '' ) ;
#49 = DIRECTION ( 'NONE',  ( 1.000000000000000000, 0.0000000000000000000, 0.0000000000000000000 ) ) ;
#50 = DIRECTION ( 'NONE',  ( 0.0000000000000000000, 0.0000000000000000000, 1.000000000000000000 ) ) ;
#51 = ORGANIZATION ( 'UNSPECIFIED', 'UNSPECIFIED', '' ) ;
#52 = CC_DESIGN_PERSON_AND_ORGANIZATION_ASSIGNMENT ( #25, #150, ( #62 ) ) ;
#53 = PERSON_AND_ORGANIZATION_ROLE ( 'classification_officer' ) ;
#54 = SHAPE_DEFINITION_REPRESENTATION ( #169, #117 ) ;
#55 = AXIS2_PLACEMENT_3D ( 'NONE', #170, #135, #151 ) ;
#56 = CC_DESIGN_APPROVAL ( #164, ( #144 ) ) ;
#57 = CARTESIAN_POINT ( 'NONE',  ( 0.0000000000000000000, 0.0000000000000000000, -3.000000000000000000 ) ) ;
#58 = CARTESIAN_POINT ( 'NONE',  ( 10.00000000000000000, 0.0000000000000000000, -3.000000000000000000 ) ) ;
#59 = CARTESIAN_POINT ( 'NONE',  ( 0.0000000000000000000, 0.0000000000000000000, 0.0000000000000000000 ) ) ;
#60 = CIRCLE ( 'NONE', #55, 10.00000000000000000 ) ;
#61 = DIRECTION ( 'NONE',  ( 1.000000000000000000, 0.0000000000000000000, 0.0000000000000000000 ) ) ;
#62 = PRODUCT_DEFINITION ( 'UNKNOWN', '', #144, #104 ) ;
#63 = CARTESIAN_POINT ( 'NONE',  ( -10.00000000000000000, 1.224646799147353256E-15, -3.000000000000000000 ) ) ;
#64 = PERSON_AND_ORGANIZATION ( #154, #51 ) ;
#65 = SECURITY_CLASSIFICATION_LEVEL ( 'unclassified' ) ;
#66 = EDGE_CURVE ( 'NONE', #109, #95, #167, .T. ) ;
#67 = CC_DESIGN_PERSON_AND_ORGANIZATION_ASSIGNMENT ( #122, #124, ( #144 ) ) ;
#68 = CALENDAR_DATE ( 2020, 3, 11 ) ;
#69 = FACE_OUTER_BOUND ( 'NONE', #92, .T. ) ;
#70 = CC_DESIGN_SECURITY_CLASSIFICATION ( #147, ( #144 ) ) ;
#71 = LOCAL_TIME ( 16, 49, 46.00000000000000000, #32 ) ;
#72 = ORIENTED_EDGE ( 'NONE', *, *, #2, .F. ) ;
#73 = DIRECTION ( 'NONE',  ( 1.000000000000000000, 0.0000000000000000000, 0.0000000000000000000 ) ) ;
#74 = DATE_AND_TIME ( #68, #14 ) ;
#75 = DATE_TIME_ROLE ( 'creation_date' ) ;
#76 = CC_DESIGN_PERSON_AND_ORGANIZATION_ASSIGNMENT ( #161, #34, ( #142 ) ) ;
#77 = CARTESIAN_POINT ( 'NONE',  ( 10.00000000000000000, 0.0000000000000000000, 0.0000000000000000000 ) ) ;
#78 =( NAMED_UNIT ( * ) SI_UNIT ( $, .STERADIAN. ) SOLID_ANGLE_UNIT ( ) );
#79 = CYLINDRICAL_SURFACE ( 'NONE', #27, 10.00000000000000000 ) ;
#80 = ORIENTED_EDGE ( 'NONE', *, *, #66, .F. ) ;
#81 = CLOSED_SHELL ( 'NONE', ( #42, #125, #26, #107 ) ) ;
#82 = ORIENTED_EDGE ( 'NONE', *, *, #123, .F. ) ;
#83 = PLANE ( 'NONE',  #134 ) ;
#84 = EDGE_CURVE ( 'NONE', #171, #131, #108, .T. ) ;
#85 = UNCERTAINTY_MEASURE_WITH_UNIT (LENGTH_MEASURE( 1.000000000000000082E-05 ), #86, 'distance_accuracy_value', 'NONE');
#86 =( LENGTH_UNIT ( ) NAMED_UNIT ( * ) SI_UNIT ( .MILLI., .METRE. ) );
#87 = MECHANICAL_CONTEXT ( 'NONE', #111, 'mechanical' ) ;
#88 = LINE ( 'NONE', #166, #20 ) ;
#89 = PRODUCT_RELATED_PRODUCT_CATEGORY ( 'detail', '', ( #142 ) ) ;
#90 = APPLICATION_PROTOCOL_DEFINITION ( 'international standard', 'config_control_design', 1994, #121 ) ;
#91 = FACE_OUTER_BOUND ( 'NONE', #102, .T. ) ;
#92 = EDGE_LOOP ( 'NONE', ( #24, #106 ) ) ;
#93 = AXIS2_PLACEMENT_3D ( 'NONE', #6, #99, #49 ) ;
#94 = PERSON_AND_ORGANIZATION ( #154, #51 ) ;
#95 = VERTEX_POINT ( 'NONE', #63 ) ;
#96 = CC_DESIGN_PERSON_AND_ORGANIZATION_ASSIGNMENT ( #94, #53, ( #147 ) ) ;
#97 =( NAMED_UNIT ( * ) PLANE_ANGLE_UNIT ( ) SI_UNIT ( $, .RADIAN. ) );
#98 = ORIENTED_EDGE ( 'NONE', *, *, #84, .F. ) ;
#99 = DIRECTION ( 'NONE',  ( 0.0000000000000000000, 0.0000000000000000000, 1.000000000000000000 ) ) ;
#100 = DIRECTION ( 'NONE',  ( 0.0000000000000000000, 0.0000000000000000000, 1.000000000000000000 ) ) ;
#101 = VECTOR ( 'NONE', #129, 1000.000000000000000 ) ;
#102 = EDGE_LOOP ( 'NONE', ( #141, #120, #98, #72 ) ) ;
#103 = AXIS2_PLACEMENT_3D ( 'NONE', #8, #100, #113 ) ;
#104 = DESIGN_CONTEXT ( 'detailed design', #121, 'design' ) ;
#105 = APPROVAL_PERSON_ORGANIZATION ( #140, #164, #36 ) ;
#106 = ORIENTED_EDGE ( 'NONE', *, *, #162, .T. ) ;
#107 = ADVANCED_FACE ( 'NONE', ( #69 ), #133, .T. ) ;
#108 = CIRCLE ( 'NONE', #158, 10.00000000000000000 ) ;
#109 = VERTEX_POINT ( 'NONE', #58 ) ;
#110 = EDGE_LOOP ( 'NONE', ( #80, #1 ) ) ;
#111 = APPLICATION_CONTEXT ( 'configuration controlled 3d designs of mechanical parts and assemblies' ) ;
#112 = DIRECTION ( 'NONE',  ( 0.0000000000000000000, 0.0000000000000000000, 1.000000000000000000 ) ) ;
#113 = DIRECTION ( 'NONE',  ( 1.000000000000000000, 0.0000000000000000000, 0.0000000000000000000 ) ) ;
#114 = CIRCLE ( 'NONE', #93, 10.00000000000000000 ) ;
#115 = DIRECTION ( 'NONE',  ( 0.0000000000000000000, 0.0000000000000000000, 1.000000000000000000 ) ) ;
#116 = DATE_AND_TIME ( #40, #126 ) ;
#117 = ADVANCED_BREP_SHAPE_REPRESENTATION ( 'Web Model 45577_13315', ( #155, #103 ), #41 ) ;
#118 = DIRECTION ( 'NONE',  ( 0.0000000000000000000, 0.0000000000000000000, 1.000000000000000000 ) ) ;
#119 = DIRECTION ( 'NONE',  ( 1.000000000000000000, 0.0000000000000000000, -0.0000000000000000000 ) ) ;
#120 = ORIENTED_EDGE ( 'NONE', *, *, #123, .T. ) ;
#121 = APPLICATION_CONTEXT ( 'configuration controlled 3d designs of mechanical parts and assemblies' ) ;
#122 = PERSON_AND_ORGANIZATION ( #154, #51 ) ;
#123 = EDGE_CURVE ( 'NONE', #95, #131, #88, .T. ) ;
#124 = PERSON_AND_ORGANIZATION_ROLE ( 'design_supplier' ) ;
#125 = ADVANCED_FACE ( 'NONE', ( #13 ), #79, .T. ) ;
#126 = LOCAL_TIME ( 16, 49, 46.00000000000000000, #46 ) ;
#127 = EDGE_LOOP ( 'NONE', ( #82, #47, #3, #172 ) ) ;
#128 = CC_DESIGN_APPROVAL ( #132, ( #62 ) ) ;
#129 = DIRECTION ( 'NONE',  ( 0.0000000000000000000, 0.0000000000000000000, 1.000000000000000000 ) ) ;
#130 = APPROVAL_DATE_TIME ( #173, #164 ) ;
#131 = VERTEX_POINT ( 'NONE', #168 ) ;
#132 = APPROVAL ( #31, 'UNSPECIFIED' ) ;
#133 = PLANE ( 'NONE',  #12 ) ;
#134 = AXIS2_PLACEMENT_3D ( 'NONE', #153, #112, #5 ) ;
#135 = DIRECTION ( 'NONE',  ( 0.0000000000000000000, 0.0000000000000000000, 1.000000000000000000 ) ) ;
#136 = CALENDAR_DATE ( 2020, 3, 11 ) ;
#137 = CARTESIAN_POINT ( 'NONE',  ( 0.0000000000000000000, 0.0000000000000000000, -3.000000000000000000 ) ) ;
#138 = DIRECTION ( 'NONE',  ( 1.000000000000000000, 0.0000000000000000000, 0.0000000000000000000 ) ) ;
#139 = DIRECTION ( 'NONE',  ( 1.000000000000000000, 0.0000000000000000000, 0.0000000000000000000 ) ) ;
#140 = PERSON_AND_ORGANIZATION ( #154, #51 ) ;
#141 = ORIENTED_EDGE ( 'NONE', *, *, #66, .T. ) ;
#142 = PRODUCT ( 'Web Model 45577_13315', 'Web Model 45577_13315', '', ( #87 ) ) ;
#143 = DATE_TIME_ROLE ( 'classification_date' ) ;
#144 = PRODUCT_DEFINITION_FORMATION_WITH_SPECIFIED_SOURCE ( 'ANY', '', #142, .NOT_KNOWN. ) ;
#145 = COORDINATED_UNIVERSAL_TIME_OFFSET ( 5, 0, .BEHIND. ) ;
#146 = DATE_AND_TIME ( #148, #29 ) ;
#147 = SECURITY_CLASSIFICATION ( '', '', #65 ) ;
#148 = CALENDAR_DATE ( 2020, 3, 11 ) ;
#149 = DIRECTION ( 'NONE',  ( 0.0000000000000000000, 0.0000000000000000000, 1.000000000000000000 ) ) ;
#150 = PERSON_AND_ORGANIZATION_ROLE ( 'creator' ) ;
#151 = DIRECTION ( 'NONE',  ( 1.000000000000000000, 0.0000000000000000000, 0.0000000000000000000 ) ) ;
#152 = CC_DESIGN_DATE_AND_TIME_ASSIGNMENT ( #175, #143, ( #147 ) ) ;
#153 = CARTESIAN_POINT ( 'NONE',  ( 0.0000000000000000000, 0.0000000000000000000, -3.000000000000000000 ) ) ;
#154 = PERSON ( 'UNSPECIFIED', 'UNSPECIFIED', 'UNSPECIFIED', ('UNSPECIFIED'), ('UNSPECIFIED'), ('UNSPECIFIED') ) ;
#155 = MANIFOLD_SOLID_BREP ( 'Extrude1', #81 ) ;
#156 = CC_DESIGN_DATE_AND_TIME_ASSIGNMENT ( #146, #75, ( #62 ) ) ;
#157 = APPROVAL_STATUS ( 'not_yet_approved' ) ;
#158 = AXIS2_PLACEMENT_3D ( 'NONE', #21, #18, #73 ) ;
#159 = APPROVAL_ROLE ( '' ) ;
#160 = LINE ( 'NONE', #30, #101 ) ;
#161 = PERSON_AND_ORGANIZATION ( #154, #51 ) ;
#162 = EDGE_CURVE ( 'NONE', #131, #171, #60, .T. ) ;
#163 = APPROVAL_PERSON_ORGANIZATION ( #39, #132, #48 ) ;
#164 = APPROVAL ( #17, 'UNSPECIFIED' ) ;
#165 = DIRECTION ( 'NONE',  ( 0.0000000000000000000, 0.0000000000000000000, 1.000000000000000000 ) ) ;
#166 = CARTESIAN_POINT ( 'NONE',  ( -10.00000000000000000, 1.224646799147353256E-15, -3.000000000000000000 ) ) ;
#167 = CIRCLE ( 'NONE', #174, 10.00000000000000000 ) ;
#168 = CARTESIAN_POINT ( 'NONE',  ( -10.00000000000000000, 1.224646799147353256E-15, 0.0000000000000000000 ) ) ;
#169 = PRODUCT_DEFINITION_SHAPE ( 'NONE', 'NONE',  #62 ) ;
#170 = CARTESIAN_POINT ( 'NONE',  ( 0.0000000000000000000, 0.0000000000000000000, 0.0000000000000000000 ) ) ;
#171 = VERTEX_POINT ( 'NONE', #77 ) ;
#172 = ORIENTED_EDGE ( 'NONE', *, *, #162, .F. ) ;
#173 = DATE_AND_TIME ( #35, #71 ) ;
#174 = AXIS2_PLACEMENT_3D ( 'NONE', #57, #165, #138 ) ;
#175 = DATE_AND_TIME ( #136, #4 ) ;
ENDSEC;
END-ISO-10303-21;
