ISO-10303-21;
HEADER;
FILE_DESCRIPTION (( 'STEP AP203' ),
    '1' );
FILE_NAME ('Web Model 45463_36989.step',
    '2019-01-07T15:39:02',
    ( '' ),
    ( '' ),
    'SwSTEP 2.0',
    'SolidWorks 2016',
    '' );
FILE_SCHEMA (( 'CONFIG_CONTROL_DESIGN' ));
ENDSEC;

DATA;
#1 = CC_DESIGN_APPROVAL ( #126, ( #5 ) ) ;
#2 = DATE_AND_TIME ( #146, #30 ) ;
#3 =( GEOMETRIC_REPRESENTATION_CONTEXT ( 3 ) GLOBAL_UNCERTAINTY_ASSIGNED_CONTEXT ( ( #12 ) ) GLOBAL_UNIT_ASSIGNED_CONTEXT ( ( #129, #111, #60 ) ) REPRESENTATION_CONTEXT ( 'NONE', 'WORKASPACE' ) );
#4 = MANIFOLD_SOLID_BREP ( 'Boss-Extrude1', #167 ) ;
#5 = PRODUCT_DEFINITION ( 'UNKNOWN', '', #141, #17 ) ;
#6 = CARTESIAN_POINT ( 'NONE',  ( 0.0000000000000000000, 0.0000000000000000000, 0.5000000000000000000 ) ) ;
#7 = DIRECTION ( 'NONE',  ( 0.0000000000000000000, 0.0000000000000000000, 1.000000000000000000 ) ) ;
#8 = PERSON_AND_ORGANIZATION_ROLE ( 'design_owner' ) ;
#9 = ORIENTED_EDGE ( 'NONE', *, *, #19, .T. ) ;
#10 = SECURITY_CLASSIFICATION ( '', '', #13 ) ;
#11 = DIRECTION ( 'NONE',  ( 1.000000000000000000, 0.0000000000000000000, 0.0000000000000000000 ) ) ;
#12 = UNCERTAINTY_MEASURE_WITH_UNIT (LENGTH_MEASURE( 1.000000000000000100E-005 ), #129, 'distance_accuracy_value', 'NONE');
#13 = SECURITY_CLASSIFICATION_LEVEL ( 'unclassified' ) ;
#14 = CYLINDRICAL_SURFACE ( 'NONE', #109, 2.499999999999999600 ) ;
#15 = CYLINDRICAL_SURFACE ( 'NONE', #53, 2.499999999999999600 ) ;
#16 = CC_DESIGN_DATE_AND_TIME_ASSIGNMENT ( #67, #94, ( #10 ) ) ;
#17 = DESIGN_CONTEXT ( 'detailed design', #73, 'design' ) ;
#18 = FACE_OUTER_BOUND ( 'NONE', #29, .T. ) ;
#19 = EDGE_CURVE ( 'NONE', #124, #89, #68, .T. ) ;
#20 = DIRECTION ( 'NONE',  ( 0.0000000000000000000, 0.0000000000000000000, 1.000000000000000000 ) ) ;
#21 = DIRECTION ( 'NONE',  ( 1.000000000000000000, 0.0000000000000000000, 0.0000000000000000000 ) ) ;
#22 = DIRECTION ( 'NONE',  ( 0.0000000000000000000, 0.0000000000000000000, 1.000000000000000000 ) ) ;
#23 = PERSON_AND_ORGANIZATION_ROLE ( 'creator' ) ;
#24 = VERTEX_POINT ( 'NONE', #35 ) ;
#25 = CC_DESIGN_PERSON_AND_ORGANIZATION_ASSIGNMENT ( #163, #8, ( #134 ) ) ;
#26 = DATE_TIME_ROLE ( 'creation_date' ) ;
#27 = PERSON_AND_ORGANIZATION ( #138, #102 ) ;
#28 = APPROVAL_ROLE ( '' ) ;
#29 = EDGE_LOOP ( 'NONE', ( #83, #82 ) ) ;
#30 = LOCAL_TIME ( 10, 39, 2.000000000000000000, #103 ) ;
#31 = COORDINATED_UNIVERSAL_TIME_OFFSET ( 5, 0, .BEHIND. ) ;
#32 = CC_DESIGN_APPROVAL ( #116, ( #141 ) ) ;
#33 = DATE_AND_TIME ( #41, #139 ) ;
#34 = FACE_OUTER_BOUND ( 'NONE', #161, .T. ) ;
#35 = CARTESIAN_POINT ( 'NONE',  ( 2.499999999999999600, 3.061616997868382600E-016, 0.5000000000000000000 ) ) ;
#36 = APPLICATION_CONTEXT ( 'configuration controlled 3d designs of mechanical parts and assemblies' ) ;
#37 = EDGE_LOOP ( 'NONE', ( #96, #58 ) ) ;
#38 = PERSON_AND_ORGANIZATION ( #138, #102 ) ;
#39 = DIRECTION ( 'NONE',  ( -1.000000000000000000, 0.0000000000000000000, 0.0000000000000000000 ) ) ;
#40 = DIRECTION ( 'NONE',  ( 0.0000000000000000000, 0.0000000000000000000, 1.000000000000000000 ) ) ;
#41 = CALENDAR_DATE ( 2019, 7, 1 ) ;
#42 = CC_DESIGN_PERSON_AND_ORGANIZATION_ASSIGNMENT ( #136, #152, ( #5 ) ) ;
#43 = APPROVAL_STATUS ( 'not_yet_approved' ) ;
#44 = LOCAL_TIME ( 10, 39, 2.000000000000000000, #97 ) ;
#45 = EDGE_CURVE ( 'NONE', #156, #24, #100, .T. ) ;
#46 = AXIS2_PLACEMENT_3D ( 'NONE', #166, #20, #11 ) ;
#47 = DIRECTION ( 'NONE',  ( -0.0000000000000000000, -0.0000000000000000000, -1.000000000000000000 ) ) ;
#48 = ORIENTED_EDGE ( 'NONE', *, *, #174, .T. ) ;
#49 = EDGE_CURVE ( 'NONE', #156, #124, #154, .T. ) ;
#50 = MECHANICAL_CONTEXT ( 'NONE', #36, 'mechanical' ) ;
#51 = CARTESIAN_POINT ( 'NONE',  ( -2.499999999999999600, 0.0000000000000000000, 0.5000000000000000000 ) ) ;
#52 = FACE_OUTER_BOUND ( 'NONE', #145, .T. ) ;
#53 = AXIS2_PLACEMENT_3D ( 'NONE', #105, #119, #77 ) ;
#54 = CIRCLE ( 'NONE', #104, 2.499999999999999600 ) ;
#55 = DIRECTION ( 'NONE',  ( 1.000000000000000000, 0.0000000000000000000, 0.0000000000000000000 ) ) ;
#56 = ORIENTED_EDGE ( 'NONE', *, *, #45, .F. ) ;
#57 = CC_DESIGN_PERSON_AND_ORGANIZATION_ASSIGNMENT ( #38, #23, ( #141 ) ) ;
#58 = ORIENTED_EDGE ( 'NONE', *, *, #175, .T. ) ;
#59 = CALENDAR_DATE ( 2019, 7, 1 ) ;
#60 =( NAMED_UNIT ( * ) SI_UNIT ( $, .STERADIAN. ) SOLID_ANGLE_UNIT ( ) );
#61 = APPLICATION_PROTOCOL_DEFINITION ( 'international standard', 'config_control_design', 1994, #73 ) ;
#62 = APPROVAL_PERSON_ORGANIZATION ( #112, #116, #88 ) ;
#63 = CARTESIAN_POINT ( 'NONE',  ( 0.0000000000000000000, 0.0000000000000000000, 0.5000000000000000000 ) ) ;
#64 = CC_DESIGN_SECURITY_CLASSIFICATION ( #10, ( #141 ) ) ;
#65 = ORIENTED_EDGE ( 'NONE', *, *, #175, .F. ) ;
#66 = AXIS2_PLACEMENT_3D ( 'NONE', #168, #128, #172 ) ;
#67 = DATE_AND_TIME ( #127, #159 ) ;
#68 = CIRCLE ( 'NONE', #150, 2.499999999999999600 ) ;
#69 = DATE_AND_TIME ( #91, #44 ) ;
#70 = ADVANCED_FACE ( 'NONE', ( #52 ), #14, .T. ) ;
#71 = CARTESIAN_POINT ( 'NONE',  ( 0.0000000000000000000, 0.0000000000000000000, -0.5000000000000000000 ) ) ;
#72 = APPROVAL_PERSON_ORGANIZATION ( #162, #98, #28 ) ;
#73 = APPLICATION_CONTEXT ( 'configuration controlled 3d designs of mechanical parts and assemblies' ) ;
#74 = APPROVAL_DATE_TIME ( #33, #98 ) ;
#75 = APPROVAL_STATUS ( 'not_yet_approved' ) ;
#76 = AXIS2_PLACEMENT_3D ( 'NONE', #155, #22, #140 ) ;
#77 = DIRECTION ( 'NONE',  ( -1.000000000000000000, 0.0000000000000000000, 0.0000000000000000000 ) ) ;
#78 = ORIENTED_EDGE ( 'NONE', *, *, #49, .T. ) ;
#79 = PERSON_AND_ORGANIZATION_ROLE ( 'design_supplier' ) ;
#80 = COORDINATED_UNIVERSAL_TIME_OFFSET ( 5, 0, .BEHIND. ) ;
#81 = CIRCLE ( 'NONE', #66, 2.499999999999999600 ) ;
#82 = ORIENTED_EDGE ( 'NONE', *, *, #144, .F. ) ;
#83 = ORIENTED_EDGE ( 'NONE', *, *, #19, .F. ) ;
#84 = CC_DESIGN_PERSON_AND_ORGANIZATION_ASSIGNMENT ( #173, #133, ( #10 ) ) ;
#85 = ADVANCED_FACE ( 'NONE', ( #18 ), #131, .F. ) ;
#86 = DIRECTION ( 'NONE',  ( -0.0000000000000000000, -0.0000000000000000000, -1.000000000000000000 ) ) ;
#87 = ADVANCED_BREP_SHAPE_REPRESENTATION ( 'Web Model 45463_36989', ( #4, #76 ), #3 ) ;
#88 = APPROVAL_ROLE ( '' ) ;
#89 = VERTEX_POINT ( 'NONE', #107 ) ;
#90 = CARTESIAN_POINT ( 'NONE',  ( 0.0000000000000000000, 0.0000000000000000000, -0.5000000000000000000 ) ) ;
#91 = CALENDAR_DATE ( 2019, 7, 1 ) ;
#92 = CARTESIAN_POINT ( 'NONE',  ( 0.0000000000000000000, 0.0000000000000000000, -0.5000000000000000000 ) ) ;
#93 = APPLICATION_PROTOCOL_DEFINITION ( 'international standard', 'config_control_design', 1994, #36 ) ;
#94 = DATE_TIME_ROLE ( 'classification_date' ) ;
#95 = LINE ( 'NONE', #143, #113 ) ;
#96 = ORIENTED_EDGE ( 'NONE', *, *, #45, .T. ) ;
#97 = COORDINATED_UNIVERSAL_TIME_OFFSET ( 5, 0, .BEHIND. ) ;
#98 = APPROVAL ( #43, 'UNSPECIFIED' ) ;
#99 = APPROVAL_DATE_TIME ( #69, #126 ) ;
#100 = CIRCLE ( 'NONE', #46, 2.499999999999999600 ) ;
#101 = LOCAL_TIME ( 10, 39, 2.000000000000000000, #158 ) ;
#102 = ORGANIZATION ( 'UNSPECIFIED', 'UNSPECIFIED', '' ) ;
#103 = COORDINATED_UNIVERSAL_TIME_OFFSET ( 5, 0, .BEHIND. ) ;
#104 = AXIS2_PLACEMENT_3D ( 'NONE', #90, #7, #55 ) ;
#105 = CARTESIAN_POINT ( 'NONE',  ( 0.0000000000000000000, 0.0000000000000000000, 0.5000000000000000000 ) ) ;
#106 = APPROVAL_STATUS ( 'not_yet_approved' ) ;
#107 = CARTESIAN_POINT ( 'NONE',  ( 2.499999999999999600, 3.061616997868382600E-016, -0.5000000000000000000 ) ) ;
#108 = PLANE ( 'NONE',  #170 ) ;
#109 = AXIS2_PLACEMENT_3D ( 'NONE', #63, #86, #39 ) ;
#110 = ORIENTED_EDGE ( 'NONE', *, *, #49, .F. ) ;
#111 =( NAMED_UNIT ( * ) PLANE_ANGLE_UNIT ( ) SI_UNIT ( $, .RADIAN. ) );
#112 = PERSON_AND_ORGANIZATION ( #138, #102 ) ;
#113 = VECTOR ( 'NONE', #117, 1000.000000000000000 ) ;
#114 = ADVANCED_FACE ( 'NONE', ( #135 ), #108, .T. ) ;
#115 = APPROVAL_ROLE ( '' ) ;
#116 = APPROVAL ( #75, 'UNSPECIFIED' ) ;
#117 = DIRECTION ( 'NONE',  ( -0.0000000000000000000, -0.0000000000000000000, -1.000000000000000000 ) ) ;
#118 = ORIENTED_EDGE ( 'NONE', *, *, #174, .F. ) ;
#119 = DIRECTION ( 'NONE',  ( -0.0000000000000000000, -0.0000000000000000000, -1.000000000000000000 ) ) ;
#120 = PRODUCT_DEFINITION_SHAPE ( 'NONE', 'NONE',  #5 ) ;
#121 = APPROVAL_DATE_TIME ( #2, #116 ) ;
#122 = SHAPE_DEFINITION_REPRESENTATION ( #120, #87 ) ;
#123 = VECTOR ( 'NONE', #47, 1000.000000000000000 ) ;
#124 = VERTEX_POINT ( 'NONE', #153 ) ;
#125 = CARTESIAN_POINT ( 'NONE',  ( -2.499999999999999600, 0.0000000000000000000, 0.5000000000000000000 ) ) ;
#126 = APPROVAL ( #106, 'UNSPECIFIED' ) ;
#127 = CALENDAR_DATE ( 2019, 7, 1 ) ;
#128 = DIRECTION ( 'NONE',  ( 0.0000000000000000000, 0.0000000000000000000, 1.000000000000000000 ) ) ;
#129 =( LENGTH_UNIT ( ) NAMED_UNIT ( * ) SI_UNIT ( .MILLI., .METRE. ) );
#130 = ORIENTED_EDGE ( 'NONE', *, *, #144, .T. ) ;
#131 = PLANE ( 'NONE',  #164 ) ;
#132 = APPROVAL_PERSON_ORGANIZATION ( #147, #126, #115 ) ;
#133 = PERSON_AND_ORGANIZATION_ROLE ( 'classification_officer' ) ;
#134 = PRODUCT ( 'Web Model 45463_36989', 'Web Model 45463_36989', '', ( #50 ) ) ;
#135 = FACE_OUTER_BOUND ( 'NONE', #37, .T. ) ;
#136 = PERSON_AND_ORGANIZATION ( #138, #102 ) ;
#137 = PRODUCT_RELATED_PRODUCT_CATEGORY ( 'detail', '', ( #134 ) ) ;
#138 = PERSON ( 'UNSPECIFIED', 'UNSPECIFIED', 'UNSPECIFIED', ('UNSPECIFIED'), ('UNSPECIFIED'), ('UNSPECIFIED') ) ;
#139 = LOCAL_TIME ( 10, 39, 2.000000000000000000, #80 ) ;
#140 = DIRECTION ( 'NONE',  ( 1.000000000000000000, 0.0000000000000000000, 0.0000000000000000000 ) ) ;
#141 = PRODUCT_DEFINITION_FORMATION_WITH_SPECIFIED_SOURCE ( 'ANY', '', #134, .NOT_KNOWN. ) ;
#142 = DIRECTION ( 'NONE',  ( 0.0000000000000000000, 0.0000000000000000000, 1.000000000000000000 ) ) ;
#143 = CARTESIAN_POINT ( 'NONE',  ( 2.499999999999999600, 3.061616997868382600E-016, 0.5000000000000000000 ) ) ;
#144 = EDGE_CURVE ( 'NONE', #89, #124, #54, .T. ) ;
#145 = EDGE_LOOP ( 'NONE', ( #118, #56, #78, #9 ) ) ;
#146 = CALENDAR_DATE ( 2019, 7, 1 ) ;
#147 = PERSON_AND_ORGANIZATION ( #138, #102 ) ;
#148 = CC_DESIGN_PERSON_AND_ORGANIZATION_ASSIGNMENT ( #27, #79, ( #141 ) ) ;
#149 = ADVANCED_FACE ( 'NONE', ( #34 ), #15, .T. ) ;
#150 = AXIS2_PLACEMENT_3D ( 'NONE', #71, #165, #21 ) ;
#151 = DIRECTION ( 'NONE',  ( 1.000000000000000000, 0.0000000000000000000, -0.0000000000000000000 ) ) ;
#152 = PERSON_AND_ORGANIZATION_ROLE ( 'creator' ) ;
#153 = CARTESIAN_POINT ( 'NONE',  ( -2.499999999999999600, 0.0000000000000000000, -0.5000000000000000000 ) ) ;
#154 = LINE ( 'NONE', #125, #123 ) ;
#155 = CARTESIAN_POINT ( 'NONE',  ( 0.0000000000000000000, 0.0000000000000000000, 0.0000000000000000000 ) ) ;
#156 = VERTEX_POINT ( 'NONE', #51 ) ;
#157 = CC_DESIGN_APPROVAL ( #98, ( #10 ) ) ;
#158 = COORDINATED_UNIVERSAL_TIME_OFFSET ( 5, 0, .BEHIND. ) ;
#159 = LOCAL_TIME ( 10, 39, 2.000000000000000000, #31 ) ;
#160 = CC_DESIGN_DATE_AND_TIME_ASSIGNMENT ( #169, #26, ( #5 ) ) ;
#161 = EDGE_LOOP ( 'NONE', ( #65, #48, #130, #110 ) ) ;
#162 = PERSON_AND_ORGANIZATION ( #138, #102 ) ;
#163 = PERSON_AND_ORGANIZATION ( #138, #102 ) ;
#164 = AXIS2_PLACEMENT_3D ( 'NONE', #92, #142, #171 ) ;
#165 = DIRECTION ( 'NONE',  ( 0.0000000000000000000, 0.0000000000000000000, 1.000000000000000000 ) ) ;
#166 = CARTESIAN_POINT ( 'NONE',  ( 0.0000000000000000000, 0.0000000000000000000, 0.5000000000000000000 ) ) ;
#167 = CLOSED_SHELL ( 'NONE', ( #149, #70, #114, #85 ) ) ;
#168 = CARTESIAN_POINT ( 'NONE',  ( 0.0000000000000000000, 0.0000000000000000000, 0.5000000000000000000 ) ) ;
#169 = DATE_AND_TIME ( #59, #101 ) ;
#170 = AXIS2_PLACEMENT_3D ( 'NONE', #6, #40, #151 ) ;
#171 = DIRECTION ( 'NONE',  ( 1.000000000000000000, 0.0000000000000000000, -0.0000000000000000000 ) ) ;
#172 = DIRECTION ( 'NONE',  ( 1.000000000000000000, 0.0000000000000000000, 0.0000000000000000000 ) ) ;
#173 = PERSON_AND_ORGANIZATION ( #138, #102 ) ;
#174 = EDGE_CURVE ( 'NONE', #24, #89, #95, .T. ) ;
#175 = EDGE_CURVE ( 'NONE', #24, #156, #81, .T. ) ;
ENDSEC;
END-ISO-10303-21;
