ISO-10303-21;
HEADER;
FILE_DESCRIPTION (( 'STEP AP214' ),
    '1' );
FILE_NAME ('4434-E0W.STEP',
    '2009-12-21T17:01:17',
    ( ' ' ),
    ( ' ' ),
    'SwSTEP 2.0',
    'SolidWorks 2009',
    '' );
FILE_SCHEMA (( 'AUTOMOTIVE_DESIGN' ));
ENDSEC;

DATA;
#1 = EDGE_CURVE ( 'NONE', #12, #7, #22, .T. ) ;
#2 = ORIENTED_EDGE ( 'NONE', *, *, #1, .T. ) ;
#3 = ORIENTED_EDGE ( 'NONE', *, *, #97, .T. ) ;
#4 = EDGE_CURVE ( 'NONE', #68, #51, #52, .T. ) ;
#5 = ORIENTED_EDGE ( 'NONE', *, *, #56, .T. ) ;
#6 = EDGE_LOOP ( 'NONE', ( #5, #10, #2, #16 ) ) ;
#7 = VERTEX_POINT ( 'NONE', #102 ) ;
#8 = ADVANCED_FACE ( 'NONE', ( #109 ), #141, .T. ) ;
#9 = ORIENTED_EDGE ( 'NONE', *, *, #4, .F. ) ;
#10 = ORIENTED_EDGE ( 'NONE', *, *, #11, .T. ) ;
#11 = EDGE_CURVE ( 'NONE', #86, #12, #74, .T. ) ;
#12 = VERTEX_POINT ( 'NONE', #49 ) ;
#13 = VERTEX_POINT ( 'NONE', #48 ) ;
#14 = ADVANCED_FACE ( 'NONE', ( #47 ), #84, .T. ) ;
#15 = CLOSED_SHELL ( 'NONE', ( #14, #8, #57, #32, #139 ) ) ;
#16 = ORIENTED_EDGE ( 'NONE', *, *, #34, .F. ) ;
#17 = ORIENTED_EDGE ( 'NONE', *, *, #11, .F. ) ;
#18 = DIRECTION ( 'NONE',  ( -1.224606353822377300E-016, -1.000000000000000000, 0.0000000000000000000 ) ) ;
#19 = DIRECTION ( 'NONE',  ( -1.000000000000000000, 1.224606353822377300E-016, 0.0000000000000000000 ) ) ;
#20 = CARTESIAN_POINT ( 'NONE',  ( 0.0000000000000000000, 0.0000000000000000000, -36.56000000000000200 ) ) ;
#21 = AXIS2_PLACEMENT_3D ( 'NONE', #20, #19, #18 ) ;
#22 = CIRCLE ( 'NONE', #21, 38.63000000000000300 ) ;
#23 = EDGE_CURVE ( 'NONE', #13, #86, #124, .T. ) ;
#24 =( NAMED_UNIT ( * ) PLANE_ANGLE_UNIT ( ) SI_UNIT ( $, .RADIAN. ) );
#25 =( LENGTH_UNIT ( ) NAMED_UNIT ( * ) SI_UNIT ( .MILLI., .METRE. ) );
#26 = MECHANICAL_DESIGN_GEOMETRIC_PRESENTATION_REPRESENTATION (  '', ( #28 ), #138 ) ;
#27 = PRESENTATION_LAYER_ASSIGNMENT (  '', '', ( #28 ) ) ;
#28 = STYLED_ITEM ( 'NONE', ( #29 ), #32 ) ;
#29 = PRESENTATION_STYLE_ASSIGNMENT (( #115 ) ) ;
#30 = EDGE_LOOP ( 'NONE', ( #112, #31, #98, #129 ) ) ;
#31 = ORIENTED_EDGE ( 'NONE', *, *, #78, .T. ) ;
#32 = ADVANCED_FACE ( 'NONE', ( #120 ), #137, .T. ) ;
#33 = ORIENTED_EDGE ( 'NONE', *, *, #23, .F. ) ;
#34 = EDGE_CURVE ( 'NONE', #36, #7, #64, .T. ) ;
#35 = ORIENTED_EDGE ( 'NONE', *, *, #23, .T. ) ;
#36 = VERTEX_POINT ( 'NONE', #60 ) ;
#37 = EDGE_CURVE ( 'NONE', #13, #68, #59, .T. ) ;
#38 = PRESENTATION_LAYER_ASSIGNMENT (  '', '', ( #39 ) ) ;
#39 = STYLED_ITEM ( 'NONE', ( #40 ), #14 ) ;
#40 = PRESENTATION_STYLE_ASSIGNMENT (( #41 ) ) ;
#41 = SURFACE_STYLE_USAGE ( .BOTH. , #42 ) ;
#42 = SURFACE_SIDE_STYLE ('',( #43 ) ) ;
#43 = SURFACE_STYLE_FILL_AREA ( #44 ) ;
#44 = FILL_AREA_STYLE ('',( #45 ) ) ;
#45 = FILL_AREA_STYLE_COLOUR ( '', #46 ) ;
#46 = COLOUR_RGB ( '',0.9568627450980391500, 0.9490196078431372100, 0.9607843137254902200 ) ;
#47 = FACE_OUTER_BOUND ( 'NONE', #55, .T. ) ;
#48 = CARTESIAN_POINT ( 'NONE',  ( -12.69999999999999900, 1.555250069354419100E-015, -2.069999999999999800 ) ) ;
#49 = CARTESIAN_POINT ( 'NONE',  ( -1.555250069354419300E-015, -12.70000000000000100, -0.07730684283299618700 ) ) ;
#50 = DIRECTION ( 'NONE',  ( 1.000000000000000000, 0.0000000000000000000, 0.0000000000000000000 ) ) ;
#51 = VERTEX_POINT ( 'NONE', #155 ) ;
#52 = LINE ( 'NONE', #105, #104 ) ;
#53 =( NAMED_UNIT ( * ) PLANE_ANGLE_UNIT ( ) SI_UNIT ( $, .RADIAN. ) );
#54 =( LENGTH_UNIT ( ) NAMED_UNIT ( * ) SI_UNIT ( .MILLI., .METRE. ) );
#55 = EDGE_LOOP ( 'NONE', ( #3, #35, #67, #96, #9 ) ) ;
#56 = EDGE_CURVE ( 'NONE', #36, #86, #167, .T. ) ;
#57 = ADVANCED_FACE ( 'NONE', ( #168 ), #151, .T. ) ;
#58 = DIRECTION ( 'NONE',  ( 0.0000000000000000000, 1.000000000000000000, 0.0000000000000000000 ) ) ;
#59 = CIRCLE ( 'NONE', #171, 12.69999999999999900 ) ;
#60 = CARTESIAN_POINT ( 'NONE',  ( 0.0000000000000000000, 12.70000000000000100, -0.07730684283299618700 ) ) ;
#61 = DIRECTION ( 'NONE',  ( 0.0000000000000000000, 0.0000000000000000000, -1.000000000000000000 ) ) ;
#62 = DIRECTION ( 'NONE',  ( 1.000000000000000000, 0.0000000000000000000, 0.0000000000000000000 ) ) ;
#63 = AXIS2_PLACEMENT_3D ( 'NONE', #132, #62, #61 ) ;
#64 = CIRCLE ( 'NONE', #63, 38.63000000000000300 ) ;
#65 = UNCERTAINTY_MEASURE_WITH_UNIT (LENGTH_MEASURE( 1.000000000000000100E-005 ), #94, 'distance_accuracy_value', 'NONE');
#66 =( NAMED_UNIT ( * ) SI_UNIT ( $, .STERADIAN. ) SOLID_ANGLE_UNIT ( ) );
#67 = ORIENTED_EDGE ( 'NONE', *, *, #56, .F. ) ;
#68 = VERTEX_POINT ( 'NONE', #198 ) ;
#69 = UNCERTAINTY_MEASURE_WITH_UNIT (LENGTH_MEASURE( 1.000000000000000100E-005 ), #25, 'distance_accuracy_value', 'NONE');
#70 =( NAMED_UNIT ( * ) SI_UNIT ( $, .STERADIAN. ) SOLID_ANGLE_UNIT ( ) );
#71 = DIRECTION ( 'NONE',  ( -0.0000000000000000000, -0.0000000000000000000, 1.000000000000000000 ) ) ;
#72 = CARTESIAN_POINT ( 'NONE',  ( 0.0000000000000000000, 0.0000000000000000000, -0.07730684283299531200 ) ) ;
#73 = AXIS2_PLACEMENT_3D ( 'NONE', #72, #71, #50 ) ;
#74 = CIRCLE ( 'NONE', #73, 12.69999999999999800 ) ;
#75 = DIRECTION ( 'NONE',  ( 0.0000000000000000000, 1.000000000000000000, 0.0000000000000000000 ) ) ;
#76 = DIRECTION ( 'NONE',  ( -1.000000000000000000, 0.0000000000000000000, 0.0000000000000000000 ) ) ;
#77 = CARTESIAN_POINT ( 'NONE',  ( 0.0000000000000000000, 0.0000000000000000000, -36.56000000000000200 ) ) ;
#78 = EDGE_CURVE ( 'NONE', #12, #51, #229, .T. ) ;
#79 = ORIENTED_EDGE ( 'NONE', *, *, #37, .T. ) ;
#80 =( GEOMETRIC_REPRESENTATION_CONTEXT ( 3 ) GLOBAL_UNCERTAINTY_ASSIGNED_CONTEXT ( ( #113 ) ) GLOBAL_UNIT_ASSIGNED_CONTEXT ( ( #54, #53, #114 ) ) REPRESENTATION_CONTEXT ( 'NONE', 'WORKASPACE' ) );
#81 = DIRECTION ( 'NONE',  ( -0.0000000000000000000, -0.0000000000000000000, 1.000000000000000000 ) ) ;
#82 = CARTESIAN_POINT ( 'NONE',  ( 0.0000000000000000000, 0.0000000000000000000, 4.308132045400366600 ) ) ;
#83 = AXIS2_PLACEMENT_3D ( 'NONE', #82, #81, #126 ) ;
#84 = CYLINDRICAL_SURFACE ( 'NONE', #83, 12.69999999999999900 ) ;
#85 =( GEOMETRIC_REPRESENTATION_CONTEXT ( 3 ) GLOBAL_UNCERTAINTY_ASSIGNED_CONTEXT ( ( #65 ) ) GLOBAL_UNIT_ASSIGNED_CONTEXT ( ( #94, #93, #66 ) ) REPRESENTATION_CONTEXT ( 'NONE', 'WORKASPACE' ) );
#86 = VERTEX_POINT ( 'NONE', #228 ) ;
#87 = MECHANICAL_DESIGN_GEOMETRIC_PRESENTATION_REPRESENTATION (  '', ( #89 ), #80 ) ;
#88 = PRESENTATION_LAYER_ASSIGNMENT (  '', '', ( #89 ) ) ;
#89 = STYLED_ITEM ( 'NONE', ( #90 ), #8 ) ;
#90 = PRESENTATION_STYLE_ASSIGNMENT (( #91 ) ) ;
#91 = SURFACE_STYLE_USAGE ( .BOTH. , #92 ) ;
#92 = SURFACE_SIDE_STYLE ('',( #106 ) ) ;
#93 =( NAMED_UNIT ( * ) PLANE_ANGLE_UNIT ( ) SI_UNIT ( $, .RADIAN. ) );
#94 =( LENGTH_UNIT ( ) NAMED_UNIT ( * ) SI_UNIT ( .MILLI., .METRE. ) );
#95 = MECHANICAL_DESIGN_GEOMETRIC_PRESENTATION_REPRESENTATION (  '', ( #39 ), #85 ) ;
#96 = ORIENTED_EDGE ( 'NONE', *, *, #110, .F. ) ;
#97 = EDGE_CURVE ( 'NONE', #68, #13, #214, .T. ) ;
#98 = ORIENTED_EDGE ( 'NONE', *, *, #110, .T. ) ;
#99 = ORIENTED_EDGE ( 'NONE', *, *, #97, .F. ) ;
#100 = ORIENTED_EDGE ( 'NONE', *, *, #37, .F. ) ;
#101 = FILL_AREA_STYLE_COLOUR ( '', #108 ) ;
#102 = CARTESIAN_POINT ( 'NONE',  ( 0.0000000000000000000, 2.365327172407922000E-015, 2.070000000000002500 ) ) ;
#103 = DIRECTION ( 'NONE',  ( -0.0000000000000000000, -0.0000000000000000000, 1.000000000000000000 ) ) ;
#104 = VECTOR ( 'NONE', #103, 1000.000000000000000 ) ;
#105 = CARTESIAN_POINT ( 'NONE',  ( 12.69999999999999900, 0.0000000000000000000, 4.308132045400366600 ) ) ;
#106 = SURFACE_STYLE_FILL_AREA ( #107 ) ;
#107 = FILL_AREA_STYLE ('',( #101 ) ) ;
#108 = COLOUR_RGB ( '',0.9568627450980391500, 0.9490196078431372100, 0.9607843137254902200 ) ;
#109 = FACE_OUTER_BOUND ( 'NONE', #6, .T. ) ;
#110 = EDGE_CURVE ( 'NONE', #51, #36, #199, .T. ) ;
#111 = EDGE_LOOP ( 'NONE', ( #33, #79, #131, #128, #17 ) ) ;
#112 = ORIENTED_EDGE ( 'NONE', *, *, #1, .F. ) ;
#113 = UNCERTAINTY_MEASURE_WITH_UNIT (LENGTH_MEASURE( 1.000000000000000100E-005 ), #54, 'distance_accuracy_value', 'NONE');
#114 =( NAMED_UNIT ( * ) SI_UNIT ( $, .STERADIAN. ) SOLID_ANGLE_UNIT ( ) );
#115 = SURFACE_STYLE_USAGE ( .BOTH. , #116 ) ;
#116 = SURFACE_SIDE_STYLE ('',( #117 ) ) ;
#117 = SURFACE_STYLE_FILL_AREA ( #118 ) ;
#118 = FILL_AREA_STYLE ('',( #125 ) ) ;
#119 = COLOUR_RGB ( '',0.9568627450980391500, 0.9490196078431372100, 0.9607843137254902200 ) ;
#120 = FACE_OUTER_BOUND ( 'NONE', #111, .T. ) ;
#121 = DIRECTION ( 'NONE',  ( -0.0000000000000000000, -0.0000000000000000000, 1.000000000000000000 ) ) ;
#122 = VECTOR ( 'NONE', #121, 1000.000000000000000 ) ;
#123 = CARTESIAN_POINT ( 'NONE',  ( -12.69999999999999900, 1.555250069354419100E-015, 4.308132045400366600 ) ) ;
#124 = LINE ( 'NONE', #123, #122 ) ;
#125 = FILL_AREA_STYLE_COLOUR ( '', #119 ) ;
#126 = DIRECTION ( 'NONE',  ( 1.000000000000000000, 0.0000000000000000000, 0.0000000000000000000 ) ) ;
#127 = MANIFOLD_SOLID_BREP ( 'NONE', #15 ) ;
#128 = ORIENTED_EDGE ( 'NONE', *, *, #78, .F. ) ;
#129 = ORIENTED_EDGE ( 'NONE', *, *, #34, .T. ) ;
#130 = EDGE_LOOP ( 'NONE', ( #99, #100 ) ) ;
#131 = ORIENTED_EDGE ( 'NONE', *, *, #4, .T. ) ;
#132 = CARTESIAN_POINT ( 'NONE',  ( 0.0000000000000000000, 0.0000000000000000000, -36.56000000000000200 ) ) ;
#133 = DIRECTION ( 'NONE',  ( 1.000000000000000000, 0.0000000000000000000, 0.0000000000000000000 ) ) ;
#134 = DIRECTION ( 'NONE',  ( -0.0000000000000000000, -0.0000000000000000000, 1.000000000000000000 ) ) ;
#135 = CARTESIAN_POINT ( 'NONE',  ( 0.0000000000000000000, 0.0000000000000000000, 4.308132045400366600 ) ) ;
#136 = AXIS2_PLACEMENT_3D ( 'NONE', #135, #134, #133 ) ;
#137 = CYLINDRICAL_SURFACE ( 'NONE', #136, 12.69999999999999900 ) ;
#138 =( GEOMETRIC_REPRESENTATION_CONTEXT ( 3 ) GLOBAL_UNCERTAINTY_ASSIGNED_CONTEXT ( ( #69 ) ) GLOBAL_UNIT_ASSIGNED_CONTEXT ( ( #25, #24, #70 ) ) REPRESENTATION_CONTEXT ( 'NONE', 'WORKASPACE' ) );
#139 = ADVANCED_FACE ( 'NONE', ( #197 ), #242, .F. ) ;
#140 = AXIS2_PLACEMENT_3D ( 'NONE', #77, #76, #75 ) ;
#141 = SPHERICAL_SURFACE ( 'NONE', #140, 38.63000000000000300 ) ;
#142 = AXIS2_PLACEMENT_3D ( 'NONE', #160, #159, #158 ) ;
#143 =( NAMED_UNIT ( * ) PLANE_ANGLE_UNIT ( ) SI_UNIT ( $, .RADIAN. ) );
#144 = MECHANICAL_DESIGN_GEOMETRIC_PRESENTATION_REPRESENTATION (  '', ( #147 ), #157 ) ;
#145 = PRESENTATION_LAYER_ASSIGNMENT (  '', '', ( #147 ) ) ;
#146 = DIRECTION ( 'NONE',  ( -0.0000000000000000000, -0.0000000000000000000, 1.000000000000000000 ) ) ;
#147 = STYLED_ITEM ( 'NONE', ( #148 ), #57 ) ;
#148 = PRESENTATION_STYLE_ASSIGNMENT (( #149 ) ) ;
#149 = SURFACE_STYLE_USAGE ( .BOTH. , #150 ) ;
#150 = SURFACE_SIDE_STYLE ('',( #163 ) ) ;
#151 = SPHERICAL_SURFACE ( 'NONE', #153, 38.63000000000000300 ) ;
#152 = CARTESIAN_POINT ( 'NONE',  ( 0.0000000000000000000, 0.0000000000000000000, -36.56000000000000200 ) ) ;
#153 = AXIS2_PLACEMENT_3D ( 'NONE', #152, #162, #58 ) ;
#154 = UNCERTAINTY_MEASURE_WITH_UNIT (LENGTH_MEASURE( 1.000000000000000100E-005 ), #170, 'distance_accuracy_value', 'NONE');
#155 = CARTESIAN_POINT ( 'NONE',  ( 12.69999999999999800, 0.0000000000000000000, -0.07730684283299531200 ) ) ;
#156 = DIRECTION ( 'NONE',  ( 1.000000000000000000, 0.0000000000000000000, 0.0000000000000000000 ) ) ;
#157 =( GEOMETRIC_REPRESENTATION_CONTEXT ( 3 ) GLOBAL_UNCERTAINTY_ASSIGNED_CONTEXT ( ( #154 ) ) GLOBAL_UNIT_ASSIGNED_CONTEXT ( ( #170, #143, #161 ) ) REPRESENTATION_CONTEXT ( 'NONE', 'WORKASPACE' ) );
#158 = DIRECTION ( 'NONE',  ( 1.000000000000000000, 0.0000000000000000000, 0.0000000000000000000 ) ) ;
#159 = DIRECTION ( 'NONE',  ( -0.0000000000000000000, -0.0000000000000000000, 1.000000000000000000 ) ) ;
#160 = CARTESIAN_POINT ( 'NONE',  ( 0.0000000000000000000, 0.0000000000000000000, -0.07730684283299531200 ) ) ;
#161 =( NAMED_UNIT ( * ) SI_UNIT ( $, .STERADIAN. ) SOLID_ANGLE_UNIT ( ) );
#162 = DIRECTION ( 'NONE',  ( -1.000000000000000000, 0.0000000000000000000, 0.0000000000000000000 ) ) ;
#163 = SURFACE_STYLE_FILL_AREA ( #164 ) ;
#164 = FILL_AREA_STYLE ('',( #165 ) ) ;
#165 = FILL_AREA_STYLE_COLOUR ( '', #166 ) ;
#166 = COLOUR_RGB ( '',0.9568627450980391500, 0.9490196078431372100, 0.9607843137254902200 ) ;
#167 = CIRCLE ( 'NONE', #142, 12.69999999999999800 ) ;
#168 = FACE_OUTER_BOUND ( 'NONE', #30, .T. ) ;
#169 = CARTESIAN_POINT ( 'NONE',  ( 0.0000000000000000000, 0.0000000000000000000, -2.069999999999999800 ) ) ;
#170 =( LENGTH_UNIT ( ) NAMED_UNIT ( * ) SI_UNIT ( .MILLI., .METRE. ) );
#171 = AXIS2_PLACEMENT_3D ( 'NONE', #169, #146, #156 ) ;
#172 =( NAMED_UNIT ( * ) PLANE_ANGLE_UNIT ( ) SI_UNIT ( $, .RADIAN. ) );
#173 = DIRECTION ( 'NONE',  ( -0.0000000000000000000, -0.0000000000000000000, 1.000000000000000000 ) ) ;
#174 = COLOUR_RGB ( '',0.7960784313725489700, 0.8235294117647058400, 0.9372549019607843100 ) ;
#175 = DIRECTION ( 'NONE',  ( 1.000000000000000000, 0.0000000000000000000, 0.0000000000000000000 ) ) ;
#176 = DIRECTION ( 'NONE',  ( 0.0000000000000000000, 0.0000000000000000000, 1.000000000000000000 ) ) ;
#177 =( LENGTH_UNIT ( ) NAMED_UNIT ( * ) SI_UNIT ( .MILLI., .METRE. ) );
#178 = MECHANICAL_DESIGN_GEOMETRIC_PRESENTATION_REPRESENTATION (  '', ( #180 ), #225 ) ;
#179 = PRESENTATION_LAYER_ASSIGNMENT (  '', '', ( #180 ) ) ;
#180 = STYLED_ITEM ( 'NONE', ( #181 ), #243 ) ;
#181 = PRESENTATION_STYLE_ASSIGNMENT (( #203 ) ) ;
#182 = PRESENTATION_LAYER_ASSIGNMENT (  '', '', ( #230 ) ) ;
#183 =( GEOMETRIC_REPRESENTATION_CONTEXT ( 3 ) GLOBAL_UNCERTAINTY_ASSIGNED_CONTEXT ( ( #200 ) ) GLOBAL_UNIT_ASSIGNED_CONTEXT ( ( #209, #246, #223 ) ) REPRESENTATION_CONTEXT ( 'NONE', 'WORKASPACE' ) );
#184 = DIRECTION ( 'NONE',  ( 0.0000000000000000000, -0.0000000000000000000, 1.000000000000000000 ) ) ;
#185 = CARTESIAN_POINT ( 'NONE',  ( 0.0000000000000000000, 7.605056622705062600E-016, -2.069999999999999800 ) ) ;
#186 = AXIS2_PLACEMENT_3D ( 'NONE', #226, #176, #175 ) ;
#187 = DIRECTION ( 'NONE',  ( -0.0000000000000000000, -0.0000000000000000000, 1.000000000000000000 ) ) ;
#188 = DIRECTION ( 'NONE',  ( 1.000000000000000000, 0.0000000000000000000, 0.0000000000000000000 ) ) ;
#189 = AXIS2_PLACEMENT_3D ( 'NONE', #239, #187, #188 ) ;
#190 = UNCERTAINTY_MEASURE_WITH_UNIT (LENGTH_MEASURE( 1.000000000000000100E-005 ), #222, 'distance_accuracy_value', 'NONE');
#191 =( NAMED_UNIT ( * ) SI_UNIT ( $, .STERADIAN. ) SOLID_ANGLE_UNIT ( ) );
#192 = SURFACE_SIDE_STYLE ('',( #193 ) ) ;
#193 = SURFACE_STYLE_FILL_AREA ( #194 ) ;
#194 = FILL_AREA_STYLE ('',( #195 ) ) ;
#195 = FILL_AREA_STYLE_COLOUR ( '', #196 ) ;
#196 = COLOUR_RGB ( '',0.9568627450980391500, 0.9490196078431372100, 0.9607843137254902200 ) ;
#197 = FACE_OUTER_BOUND ( 'NONE', #130, .T. ) ;
#198 = CARTESIAN_POINT ( 'NONE',  ( 12.69999999999999900, 0.0000000000000000000, -2.069999999999999800 ) ) ;
#199 = CIRCLE ( 'NONE', #245, 12.69999999999999800 ) ;
#200 = UNCERTAINTY_MEASURE_WITH_UNIT (LENGTH_MEASURE( 1.000000000000000100E-005 ), #209, 'distance_accuracy_value', 'NONE');
#201 = FILL_AREA_STYLE ('',( #227 ) ) ;
#202 = CARTESIAN_POINT ( 'NONE',  ( 0.0000000000000000000, 0.0000000000000000000, -0.07730684283299531200 ) ) ;
#203 = SURFACE_STYLE_USAGE ( .BOTH. , #204 ) ;
#204 = SURFACE_SIDE_STYLE ('',( #205 ) ) ;
#205 = SURFACE_STYLE_FILL_AREA ( #206 ) ;
#206 = FILL_AREA_STYLE ('',( #207 ) ) ;
#207 = FILL_AREA_STYLE_COLOUR ( '', #208 ) ;
#208 = COLOUR_RGB ( '',0.7960784313725489700, 0.8235294117647058400, 0.9372549019607843100 ) ;
#209 =( LENGTH_UNIT ( ) NAMED_UNIT ( * ) SI_UNIT ( .MILLI., .METRE. ) );
#210 = AXIS2_PLACEMENT_3D ( 'NONE', #212, #234, #236 ) ;
#211 = SURFACE_SIDE_STYLE ('',( #249 ) ) ;
#212 = CARTESIAN_POINT ( 'NONE',  ( 0.0000000000000000000, 0.0000000000000000000, -0.07730684283299531200 ) ) ;
#213 = DIRECTION ( 'NONE',  ( 1.000000000000000000, 0.0000000000000000000, 0.0000000000000000000 ) ) ;
#214 = CIRCLE ( 'NONE', #189, 12.69999999999999900 ) ;
#215 =( NAMED_UNIT ( * ) PLANE_ANGLE_UNIT ( ) SI_UNIT ( $, .RADIAN. ) );
#216 = MECHANICAL_DESIGN_GEOMETRIC_PRESENTATION_REPRESENTATION (  '', ( #230 ), #183 ) ;
#217 = DIRECTION ( 'NONE',  ( 1.000000000000000000, 0.0000000000000000000, 0.0000000000000000000 ) ) ;
#218 = PRESENTATION_LAYER_ASSIGNMENT (  '', '', ( #219 ) ) ;
#219 = STYLED_ITEM ( 'NONE', ( #220 ), #139 ) ;
#220 = PRESENTATION_STYLE_ASSIGNMENT (( #221 ) ) ;
#221 = SURFACE_STYLE_USAGE ( .BOTH. , #192 ) ;
#222 =( LENGTH_UNIT ( ) NAMED_UNIT ( * ) SI_UNIT ( .MILLI., .METRE. ) );
#223 =( NAMED_UNIT ( * ) SI_UNIT ( $, .STERADIAN. ) SOLID_ANGLE_UNIT ( ) );
#224 =( NAMED_UNIT ( * ) PLANE_ANGLE_UNIT ( ) SI_UNIT ( $, .RADIAN. ) );
#225 =( GEOMETRIC_REPRESENTATION_CONTEXT ( 3 ) GLOBAL_UNCERTAINTY_ASSIGNED_CONTEXT ( ( #232 ) ) GLOBAL_UNIT_ASSIGNED_CONTEXT ( ( #177, #215, #233 ) ) REPRESENTATION_CONTEXT ( 'NONE', 'WORKASPACE' ) );
#226 = CARTESIAN_POINT ( 'NONE',  ( 0.0000000000000000000, 0.0000000000000000000, 0.0000000000000000000 ) ) ;
#227 = FILL_AREA_STYLE_COLOUR ( '', #174 ) ;
#228 = CARTESIAN_POINT ( 'NONE',  ( -12.69999999999999800, 1.555250069354418900E-015, -0.07730684283299531200 ) ) ;
#229 = CIRCLE ( 'NONE', #210, 12.69999999999999800 ) ;
#230 = STYLED_ITEM ( 'NONE', ( #231 ), #127 ) ;
#231 = PRESENTATION_STYLE_ASSIGNMENT (( #237 ) ) ;
#232 = UNCERTAINTY_MEASURE_WITH_UNIT (LENGTH_MEASURE( 1.000000000000000100E-005 ), #177, 'distance_accuracy_value', 'NONE');
#233 =( NAMED_UNIT ( * ) SI_UNIT ( $, .STERADIAN. ) SOLID_ANGLE_UNIT ( ) );
#234 = DIRECTION ( 'NONE',  ( -0.0000000000000000000, -0.0000000000000000000, 1.000000000000000000 ) ) ;
#235 =( LENGTH_UNIT ( ) NAMED_UNIT ( * ) SI_UNIT ( .MILLI., .METRE. ) );
#236 = DIRECTION ( 'NONE',  ( 1.000000000000000000, 0.0000000000000000000, 0.0000000000000000000 ) ) ;
#237 = SURFACE_STYLE_USAGE ( .BOTH. , #211 ) ;
#238 =( GEOMETRIC_REPRESENTATION_CONTEXT ( 3 ) GLOBAL_UNCERTAINTY_ASSIGNED_CONTEXT ( ( #247 ) ) GLOBAL_UNIT_ASSIGNED_CONTEXT ( ( #235, #224, #248 ) ) REPRESENTATION_CONTEXT ( 'NONE', 'WORKASPACE' ) );
#239 = CARTESIAN_POINT ( 'NONE',  ( 0.0000000000000000000, 0.0000000000000000000, -2.069999999999999800 ) ) ;
#240 = AXIS2_PLACEMENT_3D ( 'NONE', #185, #184, #213 ) ;
#241 =( GEOMETRIC_REPRESENTATION_CONTEXT ( 3 ) GLOBAL_UNCERTAINTY_ASSIGNED_CONTEXT ( ( #190 ) ) GLOBAL_UNIT_ASSIGNED_CONTEXT ( ( #222, #172, #191 ) ) REPRESENTATION_CONTEXT ( 'NONE', 'WORKASPACE' ) );
#242 = PLANE ( 'NONE',  #240 ) ;
#243 = ADVANCED_BREP_SHAPE_REPRESENTATION ( '4434-E0W', ( #127, #186 ), #238 ) ;
#244 = MECHANICAL_DESIGN_GEOMETRIC_PRESENTATION_REPRESENTATION (  '', ( #219 ), #241 ) ;
#245 = AXIS2_PLACEMENT_3D ( 'NONE', #202, #173, #217 ) ;
#246 =( NAMED_UNIT ( * ) PLANE_ANGLE_UNIT ( ) SI_UNIT ( $, .RADIAN. ) );
#247 = UNCERTAINTY_MEASURE_WITH_UNIT (LENGTH_MEASURE( 1.000000000000000100E-005 ), #235, 'distance_accuracy_value', 'NONE');
#248 =( NAMED_UNIT ( * ) SI_UNIT ( $, .STERADIAN. ) SOLID_ANGLE_UNIT ( ) );
#249 = SURFACE_STYLE_FILL_AREA ( #201 ) ;
#250 = PRODUCT_DEFINITION_FORMATION_WITH_SPECIFIED_SOURCE ( 'ANY', '', #257, .NOT_KNOWN. ) ;
#251 = PRODUCT_DEFINITION ( 'UNKNOWN', '', #250, #258 ) ;
#252 = PRODUCT_DEFINITION_SHAPE ( 'NONE', 'NONE',  #251 ) ;
#253 = SHAPE_DEFINITION_REPRESENTATION ( #252, #243 ) ;
#254 = PRODUCT_CONTEXT ( 'NONE', #261, 'mechanical' ) ;
#255 = APPLICATION_PROTOCOL_DEFINITION ( 'draft international standard', 'automotive_design', 1998, #261 ) ;
#256 = PRODUCT_RELATED_PRODUCT_CATEGORY ( 'part', '', ( #257 ) ) ;
#257 = PRODUCT ( '4434-E0W', '4434-E0W', '', ( #254 ) ) ;
#258 = PRODUCT_DEFINITION_CONTEXT ( 'detailed design', #260, 'design' ) ;
#259 = APPLICATION_PROTOCOL_DEFINITION ( 'draft international standard', 'automotive_design', 1998, #260 ) ;
#260 = APPLICATION_CONTEXT ( 'automotive_design' ) ;
#261 = APPLICATION_CONTEXT ( 'automotive_design' ) ;
ENDSEC;
END-ISO-10303-21;
